  0
SECTION
  2
HEADER
  9
$ACADVER
  1
AC1009
  9
$INSBASE
 10
0.0
 20
0.0
 30
0.0
  9
$EXTMIN
 10
-0.841
 20
-1.402
 30
0.0
  9
$EXTMAX
 10
13.737
 20
17.81
 30
6.085
  9
$LIMMIN
 10
-0.295
 20
-1.09
  9
$LIMMAX
 10
0.769
 20
0.0
  9
$ORTHOMODE
 70
     0
  9
$REGENMODE
 70
     1
  9
$FILLMODE
 70
     1
  9
$QTEXTMODE
 70
     0
  9
$MIRRTEXT
 70
     1
  9
$DRAGMODE
 70
     2
  9
$LTSCALE
 40
1.0
  9
$OSMODE
 70
     0
  9
$ATTMODE
 70
     1
  9
$TEXTSIZE
 40
0.2
  9
$TRACEWID
 40
0.05
  9
$TEXTSTYLE
  7
STANDARD
  9
$CLAYER
  8
0
  9
$CELTYPE
  6
BYLAYER
  9
$CECOLOR
 62
   256
  9
$DIMSCALE
 40
1.0
  9
$DIMASZ
 40
0.18
  9
$DIMEXO
 40
0.063
  9
$DIMDLI
 40
0.38
  9
$DIMRND
 40
0.0
  9
$DIMDLE
 40
0.0
  9
$DIMEXE
 40
0.18
  9
$DIMTP
 40
0.0
  9
$DIMTM
 40
0.0
  9
$DIMTXT
 40
0.18
  9
$DIMCEN
 40
0.09
  9
$DIMTSZ
 40
0.0
  9
$DIMTOL
 70
     0
  9
$DIMLIM
 70
     0
  9
$DIMTIH
 70
     1
  9
$DIMTOH
 70
     1
  9
$DIMSE1
 70
     0
  9
$DIMSE2
 70
     0
  9
$DIMTAD
 70
     0
  9
$DIMZIN
 70
     0
  9
$DIMBLK
  1

  9
$DIMASO
 70
     1
  9
$DIMSHO
 70
     0
  9
$DIMPOST
  1

  9
$DIMAPOST
  1

  9
$DIMALT
 70
     0
  9
$DIMALTD
 70
     2
  9
$DIMALTF
 40
25.4
  9
$DIMLFAC
 40
1.0
  9
$DIMTOFL
 70
     0
  9
$DIMTVP
 40
0.0
  9
$DIMTIX
 70
     0
  9
$DIMSOXD
 70
     0
  9
$DIMSAH
 70
     0
  9
$DIMBLK1
  1

  9
$DIMBLK2
  1

  9
$DIMSTYLE
  2
*UNNAMED
  9
$DIMCLRD
 70
     0
  9
$DIMCLRE
 70
     0
  9
$DIMCLRT
 70
     0
  9
$DIMTFAC
 40
1.0
  9
$DIMGAP
 40
0.09
  9
$LUNITS
 70
     2
  9
$LUPREC
 70
     4
  9
$SKETCHINC
 40
0.1
  9
$FILLETRAD
 40
0.0
  9
$AUNITS
 70
     0
  9
$AUPREC
 70
     0
  9
$MENU
  1
acad
  9
$ELEVATION
 40
0.0
  9
$PELEVATION
 40
0.0
  9
$THICKNESS
 40
0.0
  9
$LIMCHECK
 70
     0
  9
$BLIPMODE
 70
     1
  9
$CHAMFERA
 40
0.0
  9
$CHAMFERB
 40
0.0
  9
$SKPOLY
 70
     0
  9
$TDCREATE
 40
2450049.593872338
  9
$TDUPDATE
 40
2450262.736322569
  9
$TDINDWG
 40
0.0029984954
  9
$TDUSRTIMER
 40
0.0029984954
  9
$USRTIMER
 70
     1
  9
$ANGBASE
 50
0.0
  9
$ANGDIR
 70
     0
  9
$PDMODE
 70
     0
  9
$PDSIZE
 40
0.0
  9
$PLINEWID
 40
0.0
  9
$COORDS
 70
     0
  9
$SPLFRAME
 70
     0
  9
$SPLINETYPE
 70
     6
  9
$SPLINESEGS
 70
     8
  9
$ATTDIA
 70
     0
  9
$ATTREQ
 70
     1
  9
$HANDLING
 70
     1
  9
$HANDSEED
  5
126B
  9
$SURFTAB1
 70
     6
  9
$SURFTAB2
 70
     6
  9
$SURFTYPE
 70
     6
  9
$SURFU
 70
     6
  9
$SURFV
 70
     6
  9
$UCSNAME
  2

  9
$UCSORG
 10
0.0
 20
0.0
 30
0.0
  9
$UCSXDIR
 10
1.0
 20
0.0
 30
0.0
  9
$UCSYDIR
 10
0.0
 20
1.0
 30
0.0
  9
$PUCSNAME
  2

  9
$PUCSORG
 10
0.0
 20
0.0
 30
0.0
  9
$PUCSXDIR
 10
1.0
 20
0.0
 30
0.0
  9
$PUCSYDIR
 10
0.0
 20
1.0
 30
0.0
  9
$USERI1
 70
     0
  9
$USERI2
 70
     0
  9
$USERI3
 70
     0
  9
$USERI4
 70
     0
  9
$USERI5
 70
     0
  9
$USERR1
 40
0.0
  9
$USERR2
 40
0.0
  9
$USERR3
 40
0.0
  9
$USERR4
 40
0.0
  9
$USERR5
 40
0.0
  9
$WORLDVIEW
 70
     1
  9
$SHADEDGE
 70
     0
  9
$SHADEDIF
 70
   100
  9
$TILEMODE
 70
     1
  9
$MAXACTVP
 70
    16
  9
$PINSBASE
 10
0.0
 20
0.0
 30
0.0
  9
$PLIMCHECK
 70
     0
  9
$PEXTMIN
 10
1.000E+20
 20
1.000E+20
 30
1.000E+20
  9
$PEXTMAX
 10
-1.000E+20
 20
-1.000E+20
 30
-1.000E+20
  9
$PLIMMIN
 10
0.0
 20
0.0
  9
$PLIMMAX
 10
12.0
 20
9.0
  9
$UNITMODE
 70
     0
  9
$VISRETAIN
 70
     0
  9
$PLINEGEN
 70
     0
  9
$PSLTSCALE
 70
     1
  9
$TREEDEPTH
 70
  3020
  9
$DWGCODEPAGE
  3
iso8859-1
  0
ENDSEC
  0
SECTION
  2
TABLES
  0
TABLE
  2
VPORT
 70
     2
  0
VPORT
  2
*ACTIVE
 70
     0
 10
0.0
 20
0.0
 11
1.0
 21
1.0
 12
2.075819
 22
-3.497381
 13
0.0
 23
0.0
 14
1.0
 24
1.0
 15
0.0
 25
0.0
 16
1.0
 26
1.0
 36
1.0
 17
0.0
 27
0.0
 37
0.0
 40
18.763091
 41
1.36234
 42
50.0
 43
0.0
 44
0.0
 50
0.0
 51
0.0
 71
     0
 72
   100
 73
     1
 74
     1
 75
     0
 76
     0
 77
     0
 78
     0
  0
ENDTAB
  0
TABLE
  2
LTYPE
 70
     1
  0
LTYPE
  2
CONTINUOUS
 70
    64
  3
Solid line
 72
    65
 73
     0
 40
0.0
  0
ENDTAB
  0
TABLE
  2
LAYER
 70
    15
  0
LAYER
  2
0
 70
     0
 62
     7
  6
CONTINUOUS
  0
LAYER
  2
11TYP02-KEY1
 70
    64
 62
     7
  6
CONTINUOUS
  0
LAYER
  2
11TYP02-KNOBS
 70
    64
 62
   252
  6
CONTINUOUS
  0
LAYER
  2
11TYP02-MAIN
 70
    64
 62
     7
  6
CONTINUOUS
  0
LAYER
  2
11TYP02-BASE
 70
    64
 62
     7
  6
CONTINUOUS
  0
LAYER
  2
11TYP02-PANEL
 70
    64
 62
    61
  6
CONTINUOUS
  0
LAYER
  2
11TYP02-STAND
 70
    64
 62
     4
  6
CONTINUOUS
  0
LAYER
  2
11TYP02-ROLL
 70
    64
 62
   250
  6
CONTINUOUS
  0
LAYER
  2
11TYP02-UNDERKE
 70
    64
 62
   251
  6
CONTINUOUS
  0
LAYER
  2
11TYP02-KEY2
 70
    64
 62
    55
  6
CONTINUOUS
  0
LAYER
  2
11TYP02-DIALS
 70
    64
 62
     2
  6
CONTINUOUS
  0
LAYER
  2
11TYP02-TOP
 70
    64
 62
     7
  6
CONTINUOUS
  0
LAYER
  2
11TYP02-GUIDE1
 70
    64
 62
     7
  6
CONTINUOUS
  0
LAYER
  2
11TYP02-GUIDE2
 70
    64
 62
     7
  6
CONTINUOUS
  0
LAYER
  2
11TYP02-STRUCT
 70
    64
 62
     8
  6
CONTINUOUS
  0
ENDTAB
  0
TABLE
  2
STYLE
 70
     1
  0
STYLE
  2
STANDARD
 70
     0
 40
0.0
 41
1.0
 50
0.0
 71
     0
 42
0.2
  3
txt
  4

  0
ENDTAB
  0
TABLE
  2
VIEW
 70
     0
  0
ENDTAB
  0
TABLE
  2
UCS
 70
     0
  0
ENDTAB
  0
TABLE
  2
APPID
 70
     3
  0
APPID
  2
ACAD
 70
    64
  0
APPID
  2
AVE_FINISH
 70
    64
  0
APPID
  2
AVE_ENTITY_MATERIAL
 70
    64
  0
ENDTAB
  0
TABLE
  2
DIMSTYLE
 70
     0
  0
ENDTAB
  0
ENDSEC
  0
SECTION
  2
BLOCKS
  0
ENDSEC
  0
SECTION
  2
ENTITIES
  0
POLYLINE
  8
11TYP02-BASE
  5
5EC
 66
     1
 10
0.0
 20
0.0
 30
0.0
 70
    64
 71
     8
 72
    12
1001
AVE_ENTITY_MATERIAL
1002
{
1000

1002
{
1071
        0
1070
     0
1070
     0
1002
{
1070
     0
1070
     0
1070
     0
1040
0.0
1002
}
1070
     0
1070
     0
1002
{
1002
}
1002
}
1002
{
1002
}
1002
{
1002
}
1011
0.0
1021
0.0
1031
0.0
1011
1.0
1021
0.0
1031
0.0
1011
0.0
1021
1.0
1031
0.0
1011
0.0
1021
0.0
1031
1.0
1002
}
1001
AVE_FINISH
1002
{
1070
     0
1005
65B
1002
}
  0
VERTEX
  8
11TYP02-BASE
  5
5ED
 10
13.514
 20
-0.02
 30
0.001
 70
   192
  0
VERTEX
  8
11TYP02-BASE
  5
5EE
 10
13.514
 20
16.427
 30
0.001
 70
   192
  0
VERTEX
  8
11TYP02-BASE
  5
5EF
 10
13.519
 20
16.427
 30
0.277
 70
   192
  0
VERTEX
  8
11TYP02-BASE
  5
5F0
 10
13.519
 20
-0.02
 30
0.277
 70
   192
  0
VERTEX
  8
11TYP02-BASE
  5
5F1
 10
-0.195
 20
16.427
 30
0.0
 70
   192
  0
VERTEX
  8
11TYP02-BASE
  5
5F2
 10
-0.19
 20
-0.02
 30
0.277
 70
   192
  0
VERTEX
  8
11TYP02-BASE
  5
5F3
 10
-0.195
 20
-0.02
 30
0.0
 70
   192
  0
VERTEX
  8
11TYP02-BASE
  5
5F4
 10
-0.19
 20
16.427
 30
0.277
 70
   192
  0
VERTEX
  8
11TYP02-BASE
  5
5F5
 10
0.0
 20
0.0
 30
0.0
 70
   128
 71
     7
 72
     5
 73
    -2
  0
VERTEX
  8
11TYP02-BASE
  5
5F6
 10
0.0
 20
0.0
 30
0.0
 70
   128
 71
     2
 72
     1
 73
    -7
  0
VERTEX
  8
11TYP02-BASE
  5
5F7
 10
0.0
 20
0.0
 30
0.0
 70
   128
 71
     8
 72
     3
 73
    -2
  0
VERTEX
  8
11TYP02-BASE
  5
5F8
 10
0.0
 20
0.0
 30
0.0
 70
   128
 71
     2
 72
     5
 73
    -8
  0
VERTEX
  8
11TYP02-BASE
  5
5F9
 10
0.0
 20
0.0
 30
0.0
 70
   128
 71
     3
 72
     4
 73
    -1
  0
VERTEX
  8
11TYP02-BASE
  5
5FA
 10
0.0
 20
0.0
 30
0.0
 70
   128
 71
     1
 72
     2
 73
    -3
  0
VERTEX
  8
11TYP02-BASE
  5
5FB
 10
0.0
 20
0.0
 30
0.0
 70
   128
 71
     4
 72
     6
 73
    -7
  0
VERTEX
  8
11TYP02-BASE
  5
5FC
 10
0.0
 20
0.0
 30
0.0
 70
   128
 71
     7
 72
     1
 73
    -4
  0
VERTEX
  8
11TYP02-BASE
  5
5FD
 10
0.0
 20
0.0
 30
0.0
 70
   128
 71
     6
 72
     8
 73
    -5
  0
VERTEX
  8
11TYP02-BASE
  5
5FE
 10
0.0
 20
0.0
 30
0.0
 70
   128
 71
     5
 72
     7
 73
    -6
  0
VERTEX
  8
11TYP02-BASE
  5
5FF
 10
0.0
 20
0.0
 30
0.0
 70
   128
 71
     4
 72
     3
 73
    -8
  0
VERTEX
  8
11TYP02-BASE
  5
600
 10
0.0
 20
0.0
 30
0.0
 70
   128
 71
     8
 72
     6
 73
    -4
  0
SEQEND
  8
11TYP02-BASE
  5
601
  0
POLYLINE
  8
11TYP02-DIALS
  5
674
 66
     1
 10
0.0
 20
0.0
 30
0.0
 70
    64
 71
   108
 72
   322
1001
AVE_ENTITY_MATERIAL
1002
{
1000

1002
{
1071
        0
1070
     0
1070
     0
1002
{
1070
     0
1070
     0
1070
     0
1040
0.0
1002
}
1070
     0
1070
     0
1002
{
1002
}
1002
}
1002
{
1002
}
1002
{
1002
}
1011
0.0
1021
0.0
1031
0.0
1011
1.0
1021
0.0
1031
0.0
1011
0.0
1021
1.0
1031
0.0
1011
0.0
1021
0.0
1031
1.0
1002
}
1001
AVE_FINISH
1002
{
1070
     0
1005
824
1002
}
  0
VERTEX
  8
11TYP02-DIALS
  5
675
 10
2.431
 20
0.827
 30
4.051
 70
   192
  0
VERTEX
  8
11TYP02-DIALS
  5
676
 10
1.876
 20
0.827
 30
3.913
 70
   192
  0
VERTEX
  8
11TYP02-DIALS
  5
677
 10
1.643
 20
1.27
 30
3.742
 70
   192
  0
VERTEX
  8
11TYP02-DIALS
  5
678
 10
1.349
 20
0.827
 30
3.251
 70
   192
  0
VERTEX
  8
11TYP02-DIALS
  5
679
 10
1.306
 20
1.27
 30
2.966
 70
   192
  0
VERTEX
  8
11TYP02-DIALS
  5
67A
 10
1.445
 20
1.27
 30
2.411
 70
   192
  0
VERTEX
  8
11TYP02-DIALS
  5
67B
 10
1.617
 20
0.827
 30
2.179
 70
   192
  0
VERTEX
  8
11TYP02-DIALS
  5
67C
 10
1.617
 20
1.27
 30
2.179
 70
   192
  0
VERTEX
  8
11TYP02-DIALS
  5
67D
 10
1.843
 20
0.827
 30
1.999
 70
   192
  0
VERTEX
  8
11TYP02-DIALS
  5
67E
 10
2.107
 20
0.827
 30
1.884
 70
   192
  0
VERTEX
  8
11TYP02-DIALS
  5
67F
 10
2.107
 20
1.27
 30
1.884
 70
   192
  0
VERTEX
  8
11TYP02-DIALS
  5
680
 10
2.679
 20
0.827
 30
1.874
 70
   192
  0
VERTEX
  8
11TYP02-DIALS
  5
681
 10
2.679
 20
1.27
 30
1.874
 70
   192
  0
VERTEX
  8
11TYP02-DIALS
  5
682
 10
2.948
 20
1.27
 30
1.98
 70
   192
  0
VERTEX
  8
11TYP02-DIALS
  5
683
 10
2.948
 20
0.827
 30
1.98
 70
   192
  0
VERTEX
  8
11TYP02-DIALS
  5
684
 10
3.358
 20
0.827
 30
2.377
 70
   192
  0
VERTEX
  8
11TYP02-DIALS
  5
685
 10
3.473
 20
0.827
 30
2.642
 70
   192
  0
VERTEX
  8
11TYP02-DIALS
  5
686
 10
3.379
 20
1.27
 30
3.482
 70
   192
  0
VERTEX
  8
11TYP02-DIALS
  5
687
 10
3.379
 20
0.827
 30
3.482
 70
   192
  0
VERTEX
  8
11TYP02-DIALS
  5
688
 10
2.98
 20
0.827
 30
3.894
 70
   192
  0
VERTEX
  8
11TYP02-DIALS
  5
689
 10
2.98
 20
1.27
 30
3.894
 70
   192
  0
VERTEX
  8
11TYP02-DIALS
  5
68A
 10
2.385
 20
0.827
 30
4.604
 70
   192
  0
VERTEX
  8
11TYP02-DIALS
  5
68B
 10
2.431
 20
15.575
 30
4.051
 70
   192
  0
VERTEX
  8
11TYP02-DIALS
  5
68C
 10
2.144
 20
15.134
 30
4.019
 70
   192
  0
VERTEX
  8
11TYP02-DIALS
  5
68D
 10
1.643
 20
15.575
 30
3.742
 70
   192
  0
VERTEX
  8
11TYP02-DIALS
  5
68E
 10
1.643
 20
15.134
 30
3.742
 70
   192
  0
VERTEX
  8
11TYP02-DIALS
  5
68F
 10
1.465
 20
15.134
 30
3.516
 70
   192
  0
VERTEX
  8
11TYP02-DIALS
  5
690
 10
1.349
 20
15.134
 30
3.251
 70
   192
  0
VERTEX
  8
11TYP02-DIALS
  5
691
 10
1.306
 20
15.575
 30
2.966
 70
   192
  0
VERTEX
  8
11TYP02-DIALS
  5
692
 10
1.445
 20
15.134
 30
2.411
 70
   192
  0
VERTEX
  8
11TYP02-DIALS
  5
693
 10
1.617
 20
15.134
 30
2.179
 70
   192
  0
VERTEX
  8
11TYP02-DIALS
  5
694
 10
2.107
 20
15.134
 30
1.884
 70
   192
  0
VERTEX
  8
11TYP02-DIALS
  5
695
 10
2.392
 20
15.575
 30
1.842
 70
   192
  0
VERTEX
  8
11TYP02-DIALS
  5
696
 10
2.679
 20
15.575
 30
1.874
 70
   192
  0
VERTEX
  8
11TYP02-DIALS
  5
697
 10
2.948
 20
15.134
 30
1.98
 70
   192
  0
VERTEX
  8
11TYP02-DIALS
  5
698
 10
3.358
 20
15.134
 30
2.377
 70
   192
  0
VERTEX
  8
11TYP02-DIALS
  5
699
 10
3.473
 20
15.134
 30
2.642
 70
   192
  0
VERTEX
  8
11TYP02-DIALS
  5
69A
 10
3.517
 20
15.575
 30
2.927
 70
   192
  0
VERTEX
  8
11TYP02-DIALS
  5
69B
 10
3.517
 20
15.134
 30
2.927
 70
   192
  0
VERTEX
  8
11TYP02-DIALS
  5
69C
 10
3.484
 20
15.575
 30
3.214
 70
   192
  0
VERTEX
  8
11TYP02-DIALS
  5
69D
 10
3.379
 20
15.134
 30
3.482
 70
   192
  0
VERTEX
  8
11TYP02-DIALS
  5
69E
 10
2.98
 20
15.575
 30
3.894
 70
   192
  0
VERTEX
  8
11TYP02-DIALS
  5
69F
 10
2.495
 20
15.134
 30
4.603
 70
   192
  0
VERTEX
  8
11TYP02-DIALS
  5
6A0
 10
2.495
 20
15.575
 30
4.603
 70
   192
  0
VERTEX
  8
11TYP02-DIALS
  5
6A1
 10
2.716
 20
15.575
 30
4.009
 70
   192
  0
VERTEX
  8
11TYP02-DIALS
  5
6A2
 10
2.431
 20
15.575
 30
4.014
 70
   192
  0
VERTEX
  8
11TYP02-DIALS
  5
6A3
 10
2.385
 20
15.575
 30
4.604
 70
   192
  0
VERTEX
  8
11TYP02-DIALS
  5
6A4
 10
2.144
 20
15.575
 30
4.019
 70
   192
  0
VERTEX
  8
11TYP02-DIALS
  5
6A5
 10
1.465
 20
15.575
 30
3.516
 70
   192
  0
VERTEX
  8
11TYP02-DIALS
  5
6A6
 10
1.349
 20
15.575
 30
3.251
 70
   192
  0
VERTEX
  8
11TYP02-DIALS
  5
6A7
 10
1.445
 20
15.575
 30
2.411
 70
   192
  0
VERTEX
  8
11TYP02-DIALS
  5
6A8
 10
1.843
 20
15.575
 30
1.999
 70
   192
  0
VERTEX
  8
11TYP02-DIALS
  5
6A9
 10
2.107
 20
15.575
 30
1.884
 70
   192
  0
VERTEX
  8
11TYP02-DIALS
  5
6AA
 10
3.358
 20
15.575
 30
2.377
 70
   192
  0
VERTEX
  8
11TYP02-DIALS
  5
6AB
 10
3.379
 20
15.575
 30
3.482
 70
   192
  0
VERTEX
  8
11TYP02-DIALS
  5
6AC
 10
3.207
 20
15.575
 30
3.714
 70
   192
  0
VERTEX
  8
11TYP02-DIALS
  5
6AD
 10
1.876
 20
15.575
 30
3.913
 70
   192
  0
VERTEX
  8
11TYP02-DIALS
  5
6AE
 10
1.34
 20
15.575
 30
2.68
 70
   192
  0
VERTEX
  8
11TYP02-DIALS
  5
6AF
 10
1.617
 20
15.575
 30
2.179
 70
   192
  0
VERTEX
  8
11TYP02-DIALS
  5
6B0
 10
2.948
 20
15.575
 30
1.98
 70
   192
  0
VERTEX
  8
11TYP02-DIALS
  5
6B1
 10
3.179
 20
15.575
 30
2.152
 70
   192
  0
VERTEX
  8
11TYP02-DIALS
  5
6B2
 10
3.473
 20
15.575
 30
2.642
 70
   192
  0
VERTEX
  8
11TYP02-DIALS
  5
6B3
 10
2.431
 20
15.134
 30
4.014
 70
   192
  0
VERTEX
  8
11TYP02-DIALS
  5
6B4
 10
2.385
 20
15.134
 30
4.604
 70
   192
  0
VERTEX
  8
11TYP02-DIALS
  5
6B5
 10
2.716
 20
15.134
 30
4.009
 70
   192
  0
VERTEX
  8
11TYP02-DIALS
  5
6B6
 10
1.843
 20
15.134
 30
1.999
 70
   192
  0
VERTEX
  8
11TYP02-DIALS
  5
6B7
 10
3.179
 20
15.134
 30
2.152
 70
   192
  0
VERTEX
  8
11TYP02-DIALS
  5
6B8
 10
3.207
 20
15.134
 30
3.714
 70
   192
  0
VERTEX
  8
11TYP02-DIALS
  5
6B9
 10
2.98
 20
15.134
 30
3.894
 70
   192
  0
VERTEX
  8
11TYP02-DIALS
  5
6BA
 10
2.392
 20
15.134
 30
1.842
 70
   192
  0
VERTEX
  8
11TYP02-DIALS
  5
6BB
 10
1.876
 20
15.134
 30
3.913
 70
   192
  0
VERTEX
  8
11TYP02-DIALS
  5
6BC
 10
1.306
 20
15.134
 30
2.966
 70
   192
  0
VERTEX
  8
11TYP02-DIALS
  5
6BD
 10
1.34
 20
15.134
 30
2.68
 70
   192
  0
VERTEX
  8
11TYP02-DIALS
  5
6BE
 10
2.679
 20
15.134
 30
1.874
 70
   192
  0
VERTEX
  8
11TYP02-DIALS
  5
6BF
 10
3.484
 20
15.134
 30
3.214
 70
   192
  0
VERTEX
  8
11TYP02-DIALS
  5
6C0
 10
2.431
 20
15.134
 30
4.051
 70
   192
  0
VERTEX
  8
11TYP02-DIALS
  5
6C1
 10
2.144
 20
1.27
 30
4.019
 70
   192
  0
VERTEX
  8
11TYP02-DIALS
  5
6C2
 10
2.385
 20
1.27
 30
4.604
 70
   192
  0
VERTEX
  8
11TYP02-DIALS
  5
6C3
 10
2.495
 20
1.27
 30
4.603
 70
   192
  0
VERTEX
  8
11TYP02-DIALS
  5
6C4
 10
2.431
 20
1.27
 30
4.014
 70
   192
  0
VERTEX
  8
11TYP02-DIALS
  5
6C5
 10
1.465
 20
1.27
 30
3.516
 70
   192
  0
VERTEX
  8
11TYP02-DIALS
  5
6C6
 10
1.349
 20
1.27
 30
3.251
 70
   192
  0
VERTEX
  8
11TYP02-DIALS
  5
6C7
 10
2.392
 20
1.27
 30
1.842
 70
   192
  0
VERTEX
  8
11TYP02-DIALS
  5
6C8
 10
3.358
 20
1.27
 30
2.377
 70
   192
  0
VERTEX
  8
11TYP02-DIALS
  5
6C9
 10
3.473
 20
1.27
 30
2.642
 70
   192
  0
VERTEX
  8
11TYP02-DIALS
  5
6CA
 10
3.484
 20
1.27
 30
3.214
 70
   192
  0
VERTEX
  8
11TYP02-DIALS
  5
6CB
 10
2.716
 20
1.27
 30
4.009
 70
   192
  0
VERTEX
  8
11TYP02-DIALS
  5
6CC
 10
2.431
 20
1.27
 30
4.051
 70
   192
  0
VERTEX
  8
11TYP02-DIALS
  5
6CD
 10
1.876
 20
1.27
 30
3.913
 70
   192
  0
VERTEX
  8
11TYP02-DIALS
  5
6CE
 10
1.34
 20
1.27
 30
2.68
 70
   192
  0
VERTEX
  8
11TYP02-DIALS
  5
6CF
 10
1.843
 20
1.27
 30
1.999
 70
   192
  0
VERTEX
  8
11TYP02-DIALS
  5
6D0
 10
3.179
 20
1.27
 30
2.152
 70
   192
  0
VERTEX
  8
11TYP02-DIALS
  5
6D1
 10
3.517
 20
1.27
 30
2.927
 70
   192
  0
VERTEX
  8
11TYP02-DIALS
  5
6D2
 10
3.207
 20
1.27
 30
3.714
 70
   192
  0
VERTEX
  8
11TYP02-DIALS
  5
6D3
 10
2.431
 20
0.827
 30
4.014
 70
   192
  0
VERTEX
  8
11TYP02-DIALS
  5
6D4
 10
2.716
 20
0.827
 30
4.009
 70
   192
  0
VERTEX
  8
11TYP02-DIALS
  5
6D5
 10
2.495
 20
0.827
 30
4.603
 70
   192
  0
VERTEX
  8
11TYP02-DIALS
  5
6D6
 10
2.392
 20
0.827
 30
1.842
 70
   192
  0
VERTEX
  8
11TYP02-DIALS
  5
6D7
 10
2.144
 20
0.827
 30
4.019
 70
   192
  0
VERTEX
  8
11TYP02-DIALS
  5
6D8
 10
1.643
 20
0.827
 30
3.742
 70
   192
  0
VERTEX
  8
11TYP02-DIALS
  5
6D9
 10
1.34
 20
0.827
 30
2.68
 70
   192
  0
VERTEX
  8
11TYP02-DIALS
  5
6DA
 10
3.517
 20
0.827
 30
2.927
 70
   192
  0
VERTEX
  8
11TYP02-DIALS
  5
6DB
 10
1.465
 20
0.827
 30
3.516
 70
   192
  0
VERTEX
  8
11TYP02-DIALS
  5
6DC
 10
1.306
 20
0.827
 30
2.966
 70
   192
  0
VERTEX
  8
11TYP02-DIALS
  5
6DD
 10
1.445
 20
0.827
 30
2.411
 70
   192
  0
VERTEX
  8
11TYP02-DIALS
  5
6DE
 10
3.179
 20
0.827
 30
2.152
 70
   192
  0
VERTEX
  8
11TYP02-DIALS
  5
6DF
 10
3.484
 20
0.827
 30
3.214
 70
   192
  0
VERTEX
  8
11TYP02-DIALS
  5
6E0
 10
3.207
 20
0.827
 30
3.714
 70
   192
  0
VERTEX
  8
11TYP02-DIALS
  5
6E1
 10
0.0
 20
0.0
 30
0.0
 70
   128
 71
    77
 72
   -88
 73
    99
  0
VERTEX
  8
11TYP02-DIALS
  5
6E2
 10
0.0
 20
0.0
 30
0.0
 70
   128
 71
     1
 72
   -99
 73
    88
  0
VERTEX
  8
11TYP02-DIALS
  5
6E3
 10
0.0
 20
0.0
 30
0.0
 70
   128
 71
    89
 72
   -77
 73
     2
  0
VERTEX
  8
11TYP02-DIALS
  5
6E4
 10
0.0
 20
0.0
 30
0.0
 70
   128
 71
     2
 72
    99
 73
   -77
  0
VERTEX
  8
11TYP02-DIALS
  5
6E5
 10
0.0
 20
0.0
 30
0.0
 70
   128
 71
     3
 72
   -89
 73
   100
  0
VERTEX
  8
11TYP02-DIALS
  5
6E6
 10
0.0
 20
0.0
 30
0.0
 70
   128
 71
     2
 72
  -100
 73
    89
  0
VERTEX
  8
11TYP02-DIALS
  5
6E7
 10
0.0
 20
0.0
 30
0.0
 70
   128
 71
    81
 72
    -3
 73
   103
  0
VERTEX
  8
11TYP02-DIALS
  5
6E8
 10
0.0
 20
0.0
 30
0.0
 70
   128
 71
   100
 72
  -103
 73
     3
  0
VERTEX
  8
11TYP02-DIALS
  5
6E9
 10
0.0
 20
0.0
 30
0.0
 70
   128
 71
    82
 72
   -81
 73
     4
  0
VERTEX
  8
11TYP02-DIALS
  5
6EA
 10
0.0
 20
0.0
 30
0.0
 70
   128
 71
   103
 72
    -4
 73
    81
  0
VERTEX
  8
11TYP02-DIALS
  5
6EB
 10
0.0
 20
0.0
 30
0.0
 70
   128
 71
     5
 72
   -82
 73
   104
  0
VERTEX
  8
11TYP02-DIALS
  5
6EC
 10
0.0
 20
0.0
 30
0.0
 70
   128
 71
     4
 72
  -104
 73
    82
  0
VERTEX
  8
11TYP02-DIALS
  5
6ED
 10
0.0
 20
0.0
 30
0.0
 70
   128
 71
    90
 72
    -5
 73
   101
  0
VERTEX
  8
11TYP02-DIALS
  5
6EE
 10
0.0
 20
0.0
 30
0.0
 70
   128
 71
   104
 72
  -101
 73
     5
  0
VERTEX
  8
11TYP02-DIALS
  5
6EF
 10
0.0
 20
0.0
 30
0.0
 70
   128
 71
     6
 72
   -90
 73
   105
  0
VERTEX
  8
11TYP02-DIALS
  5
6F0
 10
0.0
 20
0.0
 30
0.0
 70
   128
 71
   101
 72
  -105
 73
    90
  0
VERTEX
  8
11TYP02-DIALS
  5
6F1
 10
0.0
 20
0.0
 30
0.0
 70
   128
 71
     8
 72
    -6
 73
     7
  0
VERTEX
  8
11TYP02-DIALS
  5
6F2
 10
0.0
 20
0.0
 30
0.0
 70
   128
 71
   105
 72
    -7
 73
     6
  0
VERTEX
  8
11TYP02-DIALS
  5
6F3
 10
0.0
 20
0.0
 30
0.0
 70
   128
 71
    91
 72
    -8
 73
     9
  0
VERTEX
  8
11TYP02-DIALS
  5
6F4
 10
0.0
 20
0.0
 30
0.0
 70
   128
 71
     7
 72
    -9
 73
     8
  0
VERTEX
  8
11TYP02-DIALS
  5
6F5
 10
0.0
 20
0.0
 30
0.0
 70
   128
 71
    11
 72
   -91
 73
    10
  0
VERTEX
  8
11TYP02-DIALS
  5
6F6
 10
0.0
 20
0.0
 30
0.0
 70
   128
 71
     9
 72
   -10
 73
    91
  0
VERTEX
  8
11TYP02-DIALS
  5
6F7
 10
0.0
 20
0.0
 30
0.0
 70
   128
 71
    83
 72
   -11
 73
    98
  0
VERTEX
  8
11TYP02-DIALS
  5
6F8
 10
0.0
 20
0.0
 30
0.0
 70
   128
 71
    10
 72
   -98
 73
    11
  0
VERTEX
  8
11TYP02-DIALS
  5
6F9
 10
0.0
 20
0.0
 30
0.0
 70
   128
 71
    13
 72
   -83
 73
    12
  0
VERTEX
  8
11TYP02-DIALS
  5
6FA
 10
0.0
 20
0.0
 30
0.0
 70
   128
 71
    98
 72
   -12
 73
    83
  0
VERTEX
  8
11TYP02-DIALS
  5
6FB
 10
0.0
 20
0.0
 30
0.0
 70
   128
 71
    14
 72
   -13
 73
    15
  0
VERTEX
  8
11TYP02-DIALS
  5
6FC
 10
0.0
 20
0.0
 30
0.0
 70
   128
 71
    12
 72
   -15
 73
    13
  0
VERTEX
  8
11TYP02-DIALS
  5
6FD
 10
0.0
 20
0.0
 30
0.0
 70
   128
 71
    92
 72
   -14
 73
   106
  0
VERTEX
  8
11TYP02-DIALS
  5
6FE
 10
0.0
 20
0.0
 30
0.0
 70
   128
 71
    15
 72
  -106
 73
    14
  0
VERTEX
  8
11TYP02-DIALS
  5
6FF
 10
0.0
 20
0.0
 30
0.0
 70
   128
 71
    84
 72
   -92
 73
    16
  0
VERTEX
  8
11TYP02-DIALS
  5
700
 10
0.0
 20
0.0
 30
0.0
 70
   128
 71
   106
 72
   -16
 73
    92
  0
VERTEX
  8
11TYP02-DIALS
  5
701
 10
0.0
 20
0.0
 30
0.0
 70
   128
 71
    85
 72
   -84
 73
    17
  0
VERTEX
  8
11TYP02-DIALS
  5
702
 10
0.0
 20
0.0
 30
0.0
 70
   128
 71
    16
 72
   -17
 73
    84
  0
VERTEX
  8
11TYP02-DIALS
  5
703
 10
0.0
 20
0.0
 30
0.0
 70
   128
 71
    93
 72
   -85
 73
   102
  0
VERTEX
  8
11TYP02-DIALS
  5
704
 10
0.0
 20
0.0
 30
0.0
 70
   128
 71
    17
 72
  -102
 73
    85
  0
VERTEX
  8
11TYP02-DIALS
  5
705
 10
0.0
 20
0.0
 30
0.0
 70
   128
 71
    86
 72
   -93
 73
   107
  0
VERTEX
  8
11TYP02-DIALS
  5
706
 10
0.0
 20
0.0
 30
0.0
 70
   128
 71
   102
 72
  -107
 73
    93
  0
VERTEX
  8
11TYP02-DIALS
  5
707
 10
0.0
 20
0.0
 30
0.0
 70
   128
 71
    18
 72
   -86
 73
    19
  0
VERTEX
  8
11TYP02-DIALS
  5
708
 10
0.0
 20
0.0
 30
0.0
 70
   128
 71
   107
 72
   -19
 73
    86
  0
VERTEX
  8
11TYP02-DIALS
  5
709
 10
0.0
 20
0.0
 30
0.0
 70
   128
 71
    94
 72
   -18
 73
   108
  0
VERTEX
  8
11TYP02-DIALS
  5
70A
 10
0.0
 20
0.0
 30
0.0
 70
   128
 71
    19
 72
  -108
 73
    18
  0
VERTEX
  8
11TYP02-DIALS
  5
70B
 10
0.0
 20
0.0
 30
0.0
 70
   128
 71
    21
 72
   -94
 73
    20
  0
VERTEX
  8
11TYP02-DIALS
  5
70C
 10
0.0
 20
0.0
 30
0.0
 70
   128
 71
   108
 72
   -20
 73
    94
  0
VERTEX
  8
11TYP02-DIALS
  5
70D
 10
0.0
 20
0.0
 30
0.0
 70
   128
 71
    87
 72
   -21
 73
    96
  0
VERTEX
  8
11TYP02-DIALS
  5
70E
 10
0.0
 20
0.0
 30
0.0
 70
   128
 71
    20
 72
   -96
 73
    21
  0
VERTEX
  8
11TYP02-DIALS
  5
70F
 10
0.0
 20
0.0
 30
0.0
 70
   128
 71
    88
 72
   -87
 73
     1
  0
VERTEX
  8
11TYP02-DIALS
  5
710
 10
0.0
 20
0.0
 30
0.0
 70
   128
 71
    96
 72
    -1
 73
    87
  0
VERTEX
  8
11TYP02-DIALS
  5
711
 10
0.0
 20
0.0
 30
0.0
 70
   128
 71
    77
 72
   -87
 73
    99
  0
VERTEX
  8
11TYP02-DIALS
  5
712
 10
0.0
 20
0.0
 30
0.0
 70
   128
 71
    99
 72
    96
 73
   -87
  0
VERTEX
  8
11TYP02-DIALS
  5
713
 10
0.0
 20
0.0
 30
0.0
 70
   128
 71
    78
 72
   -77
 73
    22
  0
VERTEX
  8
11TYP02-DIALS
  5
714
 10
0.0
 20
0.0
 30
0.0
 70
   128
 71
    99
 72
   -22
 73
    77
  0
VERTEX
  8
11TYP02-DIALS
  5
715
 10
0.0
 20
0.0
 30
0.0
 70
   128
 71
    79
 72
   -78
 73
    97
  0
VERTEX
  8
11TYP02-DIALS
  5
716
 10
0.0
 20
0.0
 30
0.0
 70
   128
 71
    22
 72
   -97
 73
    78
  0
VERTEX
  8
11TYP02-DIALS
  5
717
 10
0.0
 20
0.0
 30
0.0
 70
   128
 71
    87
 72
   -79
 73
    96
  0
VERTEX
  8
11TYP02-DIALS
  5
718
 10
0.0
 20
0.0
 30
0.0
 70
   128
 71
    97
 72
   -96
 73
    79
  0
VERTEX
  8
11TYP02-DIALS
  5
719
 10
0.0
 20
0.0
 30
0.0
 70
   128
 71
    24
 72
   -76
 73
    48
  0
VERTEX
  8
11TYP02-DIALS
  5
71A
 10
0.0
 20
0.0
 30
0.0
 70
   128
 71
    23
 72
   -48
 73
    76
  0
VERTEX
  8
11TYP02-DIALS
  5
71B
 10
0.0
 20
0.0
 30
0.0
 70
   128
 71
    71
 72
   -24
 73
    57
  0
VERTEX
  8
11TYP02-DIALS
  5
71C
 10
0.0
 20
0.0
 30
0.0
 70
   128
 71
    57
 72
    48
 73
   -24
  0
VERTEX
  8
11TYP02-DIALS
  5
71D
 10
0.0
 20
0.0
 30
0.0
 70
   128
 71
    26
 72
   -71
 73
    25
  0
VERTEX
  8
11TYP02-DIALS
  5
71E
 10
0.0
 20
0.0
 30
0.0
 70
   128
 71
    57
 72
   -25
 73
    71
  0
VERTEX
  8
11TYP02-DIALS
  5
71F
 10
0.0
 20
0.0
 30
0.0
 70
   128
 71
    27
 72
   -26
 73
    49
  0
VERTEX
  8
11TYP02-DIALS
  5
720
 10
0.0
 20
0.0
 30
0.0
 70
   128
 71
    25
 72
   -49
 73
    26
  0
VERTEX
  8
11TYP02-DIALS
  5
721
 10
0.0
 20
0.0
 30
0.0
 70
   128
 71
    28
 72
   -27
 73
    50
  0
VERTEX
  8
11TYP02-DIALS
  5
722
 10
0.0
 20
0.0
 30
0.0
 70
   128
 71
    49
 72
   -50
 73
    27
  0
VERTEX
  8
11TYP02-DIALS
  5
723
 10
0.0
 20
0.0
 30
0.0
 70
   128
 71
    72
 72
   -28
 73
    29
  0
VERTEX
  8
11TYP02-DIALS
  5
724
 10
0.0
 20
0.0
 30
0.0
 70
   128
 71
    50
 72
   -29
 73
    28
  0
VERTEX
  8
11TYP02-DIALS
  5
725
 10
0.0
 20
0.0
 30
0.0
 70
   128
 71
    73
 72
   -72
 73
    58
  0
VERTEX
  8
11TYP02-DIALS
  5
726
 10
0.0
 20
0.0
 30
0.0
 70
   128
 71
    29
 72
   -58
 73
    72
  0
VERTEX
  8
11TYP02-DIALS
  5
727
 10
0.0
 20
0.0
 30
0.0
 70
   128
 71
    30
 72
   -73
 73
    51
  0
VERTEX
  8
11TYP02-DIALS
  5
728
 10
0.0
 20
0.0
 30
0.0
 70
   128
 71
    58
 72
   -51
 73
    73
  0
VERTEX
  8
11TYP02-DIALS
  5
729
 10
0.0
 20
0.0
 30
0.0
 70
   128
 71
    31
 72
   -30
 73
    59
  0
VERTEX
  8
11TYP02-DIALS
  5
72A
 10
0.0
 20
0.0
 30
0.0
 70
   128
 71
    51
 72
   -59
 73
    30
  0
VERTEX
  8
11TYP02-DIALS
  5
72B
 10
0.0
 20
0.0
 30
0.0
 70
   128
 71
    66
 72
   -31
 73
    52
  0
VERTEX
  8
11TYP02-DIALS
  5
72C
 10
0.0
 20
0.0
 30
0.0
 70
   128
 71
    59
 72
   -52
 73
    31
  0
VERTEX
  8
11TYP02-DIALS
  5
72D
 10
0.0
 20
0.0
 30
0.0
 70
   128
 71
    32
 72
   -66
 73
    53
  0
VERTEX
  8
11TYP02-DIALS
  5
72E
 10
0.0
 20
0.0
 30
0.0
 70
   128
 71
    52
 72
   -53
 73
    66
  0
VERTEX
  8
11TYP02-DIALS
  5
72F
 10
0.0
 20
0.0
 30
0.0
 70
   128
 71
    70
 72
   -32
 73
    33
  0
VERTEX
  8
11TYP02-DIALS
  5
730
 10
0.0
 20
0.0
 30
0.0
 70
   128
 71
    53
 72
   -33
 73
    32
  0
VERTEX
  8
11TYP02-DIALS
  5
731
 10
0.0
 20
0.0
 30
0.0
 70
   128
 71
    74
 72
   -70
 73
    34
  0
VERTEX
  8
11TYP02-DIALS
  5
732
 10
0.0
 20
0.0
 30
0.0
 70
   128
 71
    33
 72
   -34
 73
    70
  0
VERTEX
  8
11TYP02-DIALS
  5
733
 10
0.0
 20
0.0
 30
0.0
 70
   128
 71
    35
 72
   -74
 73
    60
  0
VERTEX
  8
11TYP02-DIALS
  5
734
 10
0.0
 20
0.0
 30
0.0
 70
   128
 71
    34
 72
   -60
 73
    74
  0
VERTEX
  8
11TYP02-DIALS
  5
735
 10
0.0
 20
0.0
 30
0.0
 70
   128
 71
    67
 72
   -35
 73
    61
  0
VERTEX
  8
11TYP02-DIALS
  5
736
 10
0.0
 20
0.0
 30
0.0
 70
   128
 71
    60
 72
   -61
 73
    35
  0
VERTEX
  8
11TYP02-DIALS
  5
737
 10
0.0
 20
0.0
 30
0.0
 70
   128
 71
    36
 72
   -67
 73
    54
  0
VERTEX
  8
11TYP02-DIALS
  5
738
 10
0.0
 20
0.0
 30
0.0
 70
   128
 71
    61
 72
   -54
 73
    67
  0
VERTEX
  8
11TYP02-DIALS
  5
739
 10
0.0
 20
0.0
 30
0.0
 70
   128
 71
    37
 72
   -36
 73
    62
  0
VERTEX
  8
11TYP02-DIALS
  5
73A
 10
0.0
 20
0.0
 30
0.0
 70
   128
 71
    54
 72
   -62
 73
    36
  0
VERTEX
  8
11TYP02-DIALS
  5
73B
 10
0.0
 20
0.0
 30
0.0
 70
   128
 71
    39
 72
   -37
 73
    38
  0
VERTEX
  8
11TYP02-DIALS
  5
73C
 10
0.0
 20
0.0
 30
0.0
 70
   128
 71
    62
 72
   -38
 73
    37
  0
VERTEX
  8
11TYP02-DIALS
  5
73D
 10
0.0
 20
0.0
 30
0.0
 70
   128
 71
    75
 72
   -39
 73
    40
  0
VERTEX
  8
11TYP02-DIALS
  5
73E
 10
0.0
 20
0.0
 30
0.0
 70
   128
 71
    38
 72
   -40
 73
    39
  0
VERTEX
  8
11TYP02-DIALS
  5
73F
 10
0.0
 20
0.0
 30
0.0
 70
   128
 71
    41
 72
   -75
 73
    55
  0
VERTEX
  8
11TYP02-DIALS
  5
740
 10
0.0
 20
0.0
 30
0.0
 70
   128
 71
    40
 72
   -55
 73
    75
  0
VERTEX
  8
11TYP02-DIALS
  5
741
 10
0.0
 20
0.0
 30
0.0
 70
   128
 71
    68
 72
   -41
 73
    56
  0
VERTEX
  8
11TYP02-DIALS
  5
742
 10
0.0
 20
0.0
 30
0.0
 70
   128
 71
    55
 72
   -56
 73
    41
  0
VERTEX
  8
11TYP02-DIALS
  5
743
 10
0.0
 20
0.0
 30
0.0
 70
   128
 71
    69
 72
   -68
 73
    42
  0
VERTEX
  8
11TYP02-DIALS
  5
744
 10
0.0
 20
0.0
 30
0.0
 70
   128
 71
    56
 72
   -42
 73
    68
  0
VERTEX
  8
11TYP02-DIALS
  5
745
 10
0.0
 20
0.0
 30
0.0
 70
   128
 71
    65
 72
   -69
 73
    45
  0
VERTEX
  8
11TYP02-DIALS
  5
746
 10
0.0
 20
0.0
 30
0.0
 70
   128
 71
    42
 72
   -45
 73
    69
  0
VERTEX
  8
11TYP02-DIALS
  5
747
 10
0.0
 20
0.0
 30
0.0
 70
   128
 71
    76
 72
   -65
 73
    23
  0
VERTEX
  8
11TYP02-DIALS
  5
748
 10
0.0
 20
0.0
 30
0.0
 70
   128
 71
    23
 72
    45
 73
   -65
  0
VERTEX
  8
11TYP02-DIALS
  5
749
 10
0.0
 20
0.0
 30
0.0
 70
   128
 71
    65
 72
    24
 73
   -48
  0
VERTEX
  8
11TYP02-DIALS
  5
74A
 10
0.0
 20
0.0
 30
0.0
 70
   128
 71
    48
 72
    45
 73
   -65
  0
VERTEX
  8
11TYP02-DIALS
  5
74B
 10
0.0
 20
0.0
 30
0.0
 70
   128
 71
    24
 72
    64
 73
   -47
  0
VERTEX
  8
11TYP02-DIALS
  5
74C
 10
0.0
 20
0.0
 30
0.0
 70
   128
 71
    47
 72
    48
 73
   -24
  0
VERTEX
  8
11TYP02-DIALS
  5
74D
 10
0.0
 20
0.0
 30
0.0
 70
   128
 71
    64
 72
    43
 73
   -44
  0
VERTEX
  8
11TYP02-DIALS
  5
74E
 10
0.0
 20
0.0
 30
0.0
 70
   128
 71
    44
 72
    47
 73
   -64
  0
VERTEX
  8
11TYP02-DIALS
  5
74F
 10
0.0
 20
0.0
 30
0.0
 70
   128
 71
    43
 72
    65
 73
   -45
  0
VERTEX
  8
11TYP02-DIALS
  5
750
 10
0.0
 20
0.0
 30
0.0
 70
   128
 71
    45
 72
    44
 73
   -43
  0
VERTEX
  8
11TYP02-DIALS
  5
751
 10
0.0
 20
0.0
 30
0.0
 70
   128
 71
    45
 72
    48
 73
    46
  0
VERTEX
  8
11TYP02-DIALS
  5
752
 10
0.0
 20
0.0
 30
0.0
 70
   128
 71
    48
 72
    47
 73
    46
  0
VERTEX
  8
11TYP02-DIALS
  5
753
 10
0.0
 20
0.0
 30
0.0
 70
   128
 71
    47
 72
    44
 73
    46
  0
VERTEX
  8
11TYP02-DIALS
  5
754
 10
0.0
 20
0.0
 30
0.0
 70
   128
 71
    44
 72
    45
 73
    46
  0
VERTEX
  8
11TYP02-DIALS
  5
755
 10
0.0
 20
0.0
 30
0.0
 70
   128
 71
    45
 72
    48
 73
    46
  0
VERTEX
  8
11TYP02-DIALS
  5
756
 10
0.0
 20
0.0
 30
0.0
 70
   128
 71
    48
 72
    47
 73
    46
  0
VERTEX
  8
11TYP02-DIALS
  5
757
 10
0.0
 20
0.0
 30
0.0
 70
   128
 71
    47
 72
    44
 73
    46
  0
VERTEX
  8
11TYP02-DIALS
  5
758
 10
0.0
 20
0.0
 30
0.0
 70
   128
 71
    44
 72
    45
 73
    46
  0
VERTEX
  8
11TYP02-DIALS
  5
759
 10
0.0
 20
0.0
 30
0.0
 70
   128
 71
    48
 72
    23
 73
    33
  0
VERTEX
  8
11TYP02-DIALS
  5
75A
 10
0.0
 20
0.0
 30
0.0
 70
   128
 71
    57
 72
    48
 73
    33
  0
VERTEX
  8
11TYP02-DIALS
  5
75B
 10
0.0
 20
0.0
 30
0.0
 70
   128
 71
    25
 72
    57
 73
    33
  0
VERTEX
  8
11TYP02-DIALS
  5
75C
 10
0.0
 20
0.0
 30
0.0
 70
   128
 71
    49
 72
    25
 73
    33
  0
VERTEX
  8
11TYP02-DIALS
  5
75D
 10
0.0
 20
0.0
 30
0.0
 70
   128
 71
    50
 72
    49
 73
    33
  0
VERTEX
  8
11TYP02-DIALS
  5
75E
 10
0.0
 20
0.0
 30
0.0
 70
   128
 71
    29
 72
    50
 73
    33
  0
VERTEX
  8
11TYP02-DIALS
  5
75F
 10
0.0
 20
0.0
 30
0.0
 70
   128
 71
    58
 72
    29
 73
    33
  0
VERTEX
  8
11TYP02-DIALS
  5
760
 10
0.0
 20
0.0
 30
0.0
 70
   128
 71
    51
 72
    58
 73
    33
  0
VERTEX
  8
11TYP02-DIALS
  5
761
 10
0.0
 20
0.0
 30
0.0
 70
   128
 71
    59
 72
    51
 73
    33
  0
VERTEX
  8
11TYP02-DIALS
  5
762
 10
0.0
 20
0.0
 30
0.0
 70
   128
 71
    52
 72
    59
 73
    33
  0
VERTEX
  8
11TYP02-DIALS
  5
763
 10
0.0
 20
0.0
 30
0.0
 70
   128
 71
    53
 72
    52
 73
    33
  0
VERTEX
  8
11TYP02-DIALS
  5
764
 10
0.0
 20
0.0
 30
0.0
 70
   128
 71
    60
 72
    34
 73
    33
  0
VERTEX
  8
11TYP02-DIALS
  5
765
 10
0.0
 20
0.0
 30
0.0
 70
   128
 71
    61
 72
    60
 73
    33
  0
VERTEX
  8
11TYP02-DIALS
  5
766
 10
0.0
 20
0.0
 30
0.0
 70
   128
 71
    54
 72
    61
 73
    33
  0
VERTEX
  8
11TYP02-DIALS
  5
767
 10
0.0
 20
0.0
 30
0.0
 70
   128
 71
    62
 72
    54
 73
    33
  0
VERTEX
  8
11TYP02-DIALS
  5
768
 10
0.0
 20
0.0
 30
0.0
 70
   128
 71
    38
 72
    62
 73
    33
  0
VERTEX
  8
11TYP02-DIALS
  5
769
 10
0.0
 20
0.0
 30
0.0
 70
   128
 71
    40
 72
    38
 73
    33
  0
VERTEX
  8
11TYP02-DIALS
  5
76A
 10
0.0
 20
0.0
 30
0.0
 70
   128
 71
    55
 72
    40
 73
    33
  0
VERTEX
  8
11TYP02-DIALS
  5
76B
 10
0.0
 20
0.0
 30
0.0
 70
   128
 71
    56
 72
    55
 73
    33
  0
VERTEX
  8
11TYP02-DIALS
  5
76C
 10
0.0
 20
0.0
 30
0.0
 70
   128
 71
    42
 72
    56
 73
    33
  0
VERTEX
  8
11TYP02-DIALS
  5
76D
 10
0.0
 20
0.0
 30
0.0
 70
   128
 71
    45
 72
    42
 73
    33
  0
VERTEX
  8
11TYP02-DIALS
  5
76E
 10
0.0
 20
0.0
 30
0.0
 70
   128
 71
    23
 72
    45
 73
    33
  0
VERTEX
  8
11TYP02-DIALS
  5
76F
 10
0.0
 20
0.0
 30
0.0
 70
   128
 71
    48
 72
    23
 73
    33
  0
VERTEX
  8
11TYP02-DIALS
  5
770
 10
0.0
 20
0.0
 30
0.0
 70
   128
 71
    57
 72
    48
 73
    33
  0
VERTEX
  8
11TYP02-DIALS
  5
771
 10
0.0
 20
0.0
 30
0.0
 70
   128
 71
    25
 72
    57
 73
    33
  0
VERTEX
  8
11TYP02-DIALS
  5
772
 10
0.0
 20
0.0
 30
0.0
 70
   128
 71
    49
 72
    25
 73
    33
  0
VERTEX
  8
11TYP02-DIALS
  5
773
 10
0.0
 20
0.0
 30
0.0
 70
   128
 71
    50
 72
    49
 73
    33
  0
VERTEX
  8
11TYP02-DIALS
  5
774
 10
0.0
 20
0.0
 30
0.0
 70
   128
 71
    29
 72
    50
 73
    33
  0
VERTEX
  8
11TYP02-DIALS
  5
775
 10
0.0
 20
0.0
 30
0.0
 70
   128
 71
    58
 72
    29
 73
    33
  0
VERTEX
  8
11TYP02-DIALS
  5
776
 10
0.0
 20
0.0
 30
0.0
 70
   128
 71
    51
 72
    58
 73
    33
  0
VERTEX
  8
11TYP02-DIALS
  5
777
 10
0.0
 20
0.0
 30
0.0
 70
   128
 71
    59
 72
    51
 73
    33
  0
VERTEX
  8
11TYP02-DIALS
  5
778
 10
0.0
 20
0.0
 30
0.0
 70
   128
 71
    52
 72
    59
 73
    33
  0
VERTEX
  8
11TYP02-DIALS
  5
779
 10
0.0
 20
0.0
 30
0.0
 70
   128
 71
    53
 72
    52
 73
    33
  0
VERTEX
  8
11TYP02-DIALS
  5
77A
 10
0.0
 20
0.0
 30
0.0
 70
   128
 71
    60
 72
    34
 73
    33
  0
VERTEX
  8
11TYP02-DIALS
  5
77B
 10
0.0
 20
0.0
 30
0.0
 70
   128
 71
    61
 72
    60
 73
    33
  0
VERTEX
  8
11TYP02-DIALS
  5
77C
 10
0.0
 20
0.0
 30
0.0
 70
   128
 71
    54
 72
    61
 73
    33
  0
VERTEX
  8
11TYP02-DIALS
  5
77D
 10
0.0
 20
0.0
 30
0.0
 70
   128
 71
    62
 72
    54
 73
    33
  0
VERTEX
  8
11TYP02-DIALS
  5
77E
 10
0.0
 20
0.0
 30
0.0
 70
   128
 71
    38
 72
    62
 73
    33
  0
VERTEX
  8
11TYP02-DIALS
  5
77F
 10
0.0
 20
0.0
 30
0.0
 70
   128
 71
    40
 72
    38
 73
    33
  0
VERTEX
  8
11TYP02-DIALS
  5
780
 10
0.0
 20
0.0
 30
0.0
 70
   128
 71
    55
 72
    40
 73
    33
  0
VERTEX
  8
11TYP02-DIALS
  5
781
 10
0.0
 20
0.0
 30
0.0
 70
   128
 71
    56
 72
    55
 73
    33
  0
VERTEX
  8
11TYP02-DIALS
  5
782
 10
0.0
 20
0.0
 30
0.0
 70
   128
 71
    42
 72
    56
 73
    33
  0
VERTEX
  8
11TYP02-DIALS
  5
783
 10
0.0
 20
0.0
 30
0.0
 70
   128
 71
    45
 72
    42
 73
    33
  0
VERTEX
  8
11TYP02-DIALS
  5
784
 10
0.0
 20
0.0
 30
0.0
 70
   128
 71
    23
 72
    45
 73
    33
  0
VERTEX
  8
11TYP02-DIALS
  5
785
 10
0.0
 20
0.0
 30
0.0
 70
   128
 71
    24
 72
    65
 73
    63
  0
VERTEX
  8
11TYP02-DIALS
  5
786
 10
0.0
 20
0.0
 30
0.0
 70
   128
 71
    64
 72
    24
 73
    63
  0
VERTEX
  8
11TYP02-DIALS
  5
787
 10
0.0
 20
0.0
 30
0.0
 70
   128
 71
    43
 72
    64
 73
    63
  0
VERTEX
  8
11TYP02-DIALS
  5
788
 10
0.0
 20
0.0
 30
0.0
 70
   128
 71
    65
 72
    43
 73
    63
  0
VERTEX
  8
11TYP02-DIALS
  5
789
 10
0.0
 20
0.0
 30
0.0
 70
   128
 71
    24
 72
    65
 73
    63
  0
VERTEX
  8
11TYP02-DIALS
  5
78A
 10
0.0
 20
0.0
 30
0.0
 70
   128
 71
    64
 72
    24
 73
    63
  0
VERTEX
  8
11TYP02-DIALS
  5
78B
 10
0.0
 20
0.0
 30
0.0
 70
   128
 71
    43
 72
    64
 73
    63
  0
VERTEX
  8
11TYP02-DIALS
  5
78C
 10
0.0
 20
0.0
 30
0.0
 70
   128
 71
    65
 72
    43
 73
    63
  0
VERTEX
  8
11TYP02-DIALS
  5
78D
 10
0.0
 20
0.0
 30
0.0
 70
   128
 71
    76
 72
    24
 73
    70
  0
VERTEX
  8
11TYP02-DIALS
  5
78E
 10
0.0
 20
0.0
 30
0.0
 70
   128
 71
    24
 72
    71
 73
    70
  0
VERTEX
  8
11TYP02-DIALS
  5
78F
 10
0.0
 20
0.0
 30
0.0
 70
   128
 71
    71
 72
    26
 73
    70
  0
VERTEX
  8
11TYP02-DIALS
  5
790
 10
0.0
 20
0.0
 30
0.0
 70
   128
 71
    26
 72
    27
 73
    70
  0
VERTEX
  8
11TYP02-DIALS
  5
791
 10
0.0
 20
0.0
 30
0.0
 70
   128
 71
    27
 72
    28
 73
    70
  0
VERTEX
  8
11TYP02-DIALS
  5
792
 10
0.0
 20
0.0
 30
0.0
 70
   128
 71
    28
 72
    72
 73
    70
  0
VERTEX
  8
11TYP02-DIALS
  5
793
 10
0.0
 20
0.0
 30
0.0
 70
   128
 71
    72
 72
    73
 73
    70
  0
VERTEX
  8
11TYP02-DIALS
  5
794
 10
0.0
 20
0.0
 30
0.0
 70
   128
 71
    73
 72
    30
 73
    70
  0
VERTEX
  8
11TYP02-DIALS
  5
795
 10
0.0
 20
0.0
 30
0.0
 70
   128
 71
    30
 72
    31
 73
    70
  0
VERTEX
  8
11TYP02-DIALS
  5
796
 10
0.0
 20
0.0
 30
0.0
 70
   128
 71
    31
 72
    66
 73
    70
  0
VERTEX
  8
11TYP02-DIALS
  5
797
 10
0.0
 20
0.0
 30
0.0
 70
   128
 71
    66
 72
    32
 73
    70
  0
VERTEX
  8
11TYP02-DIALS
  5
798
 10
0.0
 20
0.0
 30
0.0
 70
   128
 71
    74
 72
    35
 73
    70
  0
VERTEX
  8
11TYP02-DIALS
  5
799
 10
0.0
 20
0.0
 30
0.0
 70
   128
 71
    35
 72
    67
 73
    70
  0
VERTEX
  8
11TYP02-DIALS
  5
79A
 10
0.0
 20
0.0
 30
0.0
 70
   128
 71
    67
 72
    36
 73
    70
  0
VERTEX
  8
11TYP02-DIALS
  5
79B
 10
0.0
 20
0.0
 30
0.0
 70
   128
 71
    36
 72
    37
 73
    70
  0
VERTEX
  8
11TYP02-DIALS
  5
79C
 10
0.0
 20
0.0
 30
0.0
 70
   128
 71
    37
 72
    39
 73
    70
  0
VERTEX
  8
11TYP02-DIALS
  5
79D
 10
0.0
 20
0.0
 30
0.0
 70
   128
 71
    39
 72
    75
 73
    70
  0
VERTEX
  8
11TYP02-DIALS
  5
79E
 10
0.0
 20
0.0
 30
0.0
 70
   128
 71
    75
 72
    41
 73
    70
  0
VERTEX
  8
11TYP02-DIALS
  5
79F
 10
0.0
 20
0.0
 30
0.0
 70
   128
 71
    41
 72
    68
 73
    70
  0
VERTEX
  8
11TYP02-DIALS
  5
7A0
 10
0.0
 20
0.0
 30
0.0
 70
   128
 71
    68
 72
    69
 73
    70
  0
VERTEX
  8
11TYP02-DIALS
  5
7A1
 10
0.0
 20
0.0
 30
0.0
 70
   128
 71
    69
 72
    65
 73
    70
  0
VERTEX
  8
11TYP02-DIALS
  5
7A2
 10
0.0
 20
0.0
 30
0.0
 70
   128
 71
    65
 72
    76
 73
    70
  0
VERTEX
  8
11TYP02-DIALS
  5
7A3
 10
0.0
 20
0.0
 30
0.0
 70
   128
 71
    76
 72
    24
 73
    70
  0
VERTEX
  8
11TYP02-DIALS
  5
7A4
 10
0.0
 20
0.0
 30
0.0
 70
   128
 71
    24
 72
    71
 73
    70
  0
VERTEX
  8
11TYP02-DIALS
  5
7A5
 10
0.0
 20
0.0
 30
0.0
 70
   128
 71
    71
 72
    26
 73
    70
  0
VERTEX
  8
11TYP02-DIALS
  5
7A6
 10
0.0
 20
0.0
 30
0.0
 70
   128
 71
    26
 72
    27
 73
    70
  0
VERTEX
  8
11TYP02-DIALS
  5
7A7
 10
0.0
 20
0.0
 30
0.0
 70
   128
 71
    27
 72
    28
 73
    70
  0
VERTEX
  8
11TYP02-DIALS
  5
7A8
 10
0.0
 20
0.0
 30
0.0
 70
   128
 71
    28
 72
    72
 73
    70
  0
VERTEX
  8
11TYP02-DIALS
  5
7A9
 10
0.0
 20
0.0
 30
0.0
 70
   128
 71
    72
 72
    73
 73
    70
  0
VERTEX
  8
11TYP02-DIALS
  5
7AA
 10
0.0
 20
0.0
 30
0.0
 70
   128
 71
    73
 72
    30
 73
    70
  0
VERTEX
  8
11TYP02-DIALS
  5
7AB
 10
0.0
 20
0.0
 30
0.0
 70
   128
 71
    30
 72
    31
 73
    70
  0
VERTEX
  8
11TYP02-DIALS
  5
7AC
 10
0.0
 20
0.0
 30
0.0
 70
   128
 71
    31
 72
    66
 73
    70
  0
VERTEX
  8
11TYP02-DIALS
  5
7AD
 10
0.0
 20
0.0
 30
0.0
 70
   128
 71
    66
 72
    32
 73
    70
  0
VERTEX
  8
11TYP02-DIALS
  5
7AE
 10
0.0
 20
0.0
 30
0.0
 70
   128
 71
    74
 72
    35
 73
    70
  0
VERTEX
  8
11TYP02-DIALS
  5
7AF
 10
0.0
 20
0.0
 30
0.0
 70
   128
 71
    35
 72
    67
 73
    70
  0
VERTEX
  8
11TYP02-DIALS
  5
7B0
 10
0.0
 20
0.0
 30
0.0
 70
   128
 71
    67
 72
    36
 73
    70
  0
VERTEX
  8
11TYP02-DIALS
  5
7B1
 10
0.0
 20
0.0
 30
0.0
 70
   128
 71
    36
 72
    37
 73
    70
  0
VERTEX
  8
11TYP02-DIALS
  5
7B2
 10
0.0
 20
0.0
 30
0.0
 70
   128
 71
    37
 72
    39
 73
    70
  0
VERTEX
  8
11TYP02-DIALS
  5
7B3
 10
0.0
 20
0.0
 30
0.0
 70
   128
 71
    39
 72
    75
 73
    70
  0
VERTEX
  8
11TYP02-DIALS
  5
7B4
 10
0.0
 20
0.0
 30
0.0
 70
   128
 71
    75
 72
    41
 73
    70
  0
VERTEX
  8
11TYP02-DIALS
  5
7B5
 10
0.0
 20
0.0
 30
0.0
 70
   128
 71
    41
 72
    68
 73
    70
  0
VERTEX
  8
11TYP02-DIALS
  5
7B6
 10
0.0
 20
0.0
 30
0.0
 70
   128
 71
    68
 72
    69
 73
    70
  0
VERTEX
  8
11TYP02-DIALS
  5
7B7
 10
0.0
 20
0.0
 30
0.0
 70
   128
 71
    69
 72
    65
 73
    70
  0
VERTEX
  8
11TYP02-DIALS
  5
7B8
 10
0.0
 20
0.0
 30
0.0
 70
   128
 71
    65
 72
    76
 73
    70
  0
VERTEX
  8
11TYP02-DIALS
  5
7B9
 10
0.0
 20
0.0
 30
0.0
 70
   128
 71
    87
 72
    77
 73
    80
  0
VERTEX
  8
11TYP02-DIALS
  5
7BA
 10
0.0
 20
0.0
 30
0.0
 70
   128
 71
    77
 72
    78
 73
    80
  0
VERTEX
  8
11TYP02-DIALS
  5
7BB
 10
0.0
 20
0.0
 30
0.0
 70
   128
 71
    78
 72
    79
 73
    80
  0
VERTEX
  8
11TYP02-DIALS
  5
7BC
 10
0.0
 20
0.0
 30
0.0
 70
   128
 71
    79
 72
    87
 73
    80
  0
VERTEX
  8
11TYP02-DIALS
  5
7BD
 10
0.0
 20
0.0
 30
0.0
 70
   128
 71
    87
 72
    77
 73
    80
  0
VERTEX
  8
11TYP02-DIALS
  5
7BE
 10
0.0
 20
0.0
 30
0.0
 70
   128
 71
    77
 72
    78
 73
    80
  0
VERTEX
  8
11TYP02-DIALS
  5
7BF
 10
0.0
 20
0.0
 30
0.0
 70
   128
 71
    78
 72
    79
 73
    80
  0
VERTEX
  8
11TYP02-DIALS
  5
7C0
 10
0.0
 20
0.0
 30
0.0
 70
   128
 71
    79
 72
    87
 73
    80
  0
VERTEX
  8
11TYP02-DIALS
  5
7C1
 10
0.0
 20
0.0
 30
0.0
 70
   128
 71
    88
 72
    77
 73
    83
  0
VERTEX
  8
11TYP02-DIALS
  5
7C2
 10
0.0
 20
0.0
 30
0.0
 70
   128
 71
    77
 72
    89
 73
    83
  0
VERTEX
  8
11TYP02-DIALS
  5
7C3
 10
0.0
 20
0.0
 30
0.0
 70
   128
 71
    89
 72
     3
 73
    83
  0
VERTEX
  8
11TYP02-DIALS
  5
7C4
 10
0.0
 20
0.0
 30
0.0
 70
   128
 71
     3
 72
    81
 73
    83
  0
VERTEX
  8
11TYP02-DIALS
  5
7C5
 10
0.0
 20
0.0
 30
0.0
 70
   128
 71
    81
 72
    82
 73
    83
  0
VERTEX
  8
11TYP02-DIALS
  5
7C6
 10
0.0
 20
0.0
 30
0.0
 70
   128
 71
    82
 72
     5
 73
    83
  0
VERTEX
  8
11TYP02-DIALS
  5
7C7
 10
0.0
 20
0.0
 30
0.0
 70
   128
 71
     5
 72
    90
 73
    83
  0
VERTEX
  8
11TYP02-DIALS
  5
7C8
 10
0.0
 20
0.0
 30
0.0
 70
   128
 71
    90
 72
     6
 73
    83
  0
VERTEX
  8
11TYP02-DIALS
  5
7C9
 10
0.0
 20
0.0
 30
0.0
 70
   128
 71
     6
 72
     8
 73
    83
  0
VERTEX
  8
11TYP02-DIALS
  5
7CA
 10
0.0
 20
0.0
 30
0.0
 70
   128
 71
     8
 72
    91
 73
    83
  0
VERTEX
  8
11TYP02-DIALS
  5
7CB
 10
0.0
 20
0.0
 30
0.0
 70
   128
 71
    91
 72
    11
 73
    83
  0
VERTEX
  8
11TYP02-DIALS
  5
7CC
 10
0.0
 20
0.0
 30
0.0
 70
   128
 71
    13
 72
    14
 73
    83
  0
VERTEX
  8
11TYP02-DIALS
  5
7CD
 10
0.0
 20
0.0
 30
0.0
 70
   128
 71
    14
 72
    92
 73
    83
  0
VERTEX
  8
11TYP02-DIALS
  5
7CE
 10
0.0
 20
0.0
 30
0.0
 70
   128
 71
    92
 72
    84
 73
    83
  0
VERTEX
  8
11TYP02-DIALS
  5
7CF
 10
0.0
 20
0.0
 30
0.0
 70
   128
 71
    84
 72
    85
 73
    83
  0
VERTEX
  8
11TYP02-DIALS
  5
7D0
 10
0.0
 20
0.0
 30
0.0
 70
   128
 71
    85
 72
    93
 73
    83
  0
VERTEX
  8
11TYP02-DIALS
  5
7D1
 10
0.0
 20
0.0
 30
0.0
 70
   128
 71
    93
 72
    86
 73
    83
  0
VERTEX
  8
11TYP02-DIALS
  5
7D2
 10
0.0
 20
0.0
 30
0.0
 70
   128
 71
    86
 72
    18
 73
    83
  0
VERTEX
  8
11TYP02-DIALS
  5
7D3
 10
0.0
 20
0.0
 30
0.0
 70
   128
 71
    18
 72
    94
 73
    83
  0
VERTEX
  8
11TYP02-DIALS
  5
7D4
 10
0.0
 20
0.0
 30
0.0
 70
   128
 71
    94
 72
    21
 73
    83
  0
VERTEX
  8
11TYP02-DIALS
  5
7D5
 10
0.0
 20
0.0
 30
0.0
 70
   128
 71
    21
 72
    87
 73
    83
  0
VERTEX
  8
11TYP02-DIALS
  5
7D6
 10
0.0
 20
0.0
 30
0.0
 70
   128
 71
    87
 72
    88
 73
    83
  0
VERTEX
  8
11TYP02-DIALS
  5
7D7
 10
0.0
 20
0.0
 30
0.0
 70
   128
 71
    88
 72
    77
 73
    83
  0
VERTEX
  8
11TYP02-DIALS
  5
7D8
 10
0.0
 20
0.0
 30
0.0
 70
   128
 71
    77
 72
    89
 73
    83
  0
VERTEX
  8
11TYP02-DIALS
  5
7D9
 10
0.0
 20
0.0
 30
0.0
 70
   128
 71
    89
 72
     3
 73
    83
  0
VERTEX
  8
11TYP02-DIALS
  5
7DA
 10
0.0
 20
0.0
 30
0.0
 70
   128
 71
     3
 72
    81
 73
    83
  0
VERTEX
  8
11TYP02-DIALS
  5
7DB
 10
0.0
 20
0.0
 30
0.0
 70
   128
 71
    81
 72
    82
 73
    83
  0
VERTEX
  8
11TYP02-DIALS
  5
7DC
 10
0.0
 20
0.0
 30
0.0
 70
   128
 71
    82
 72
     5
 73
    83
  0
VERTEX
  8
11TYP02-DIALS
  5
7DD
 10
0.0
 20
0.0
 30
0.0
 70
   128
 71
     5
 72
    90
 73
    83
  0
VERTEX
  8
11TYP02-DIALS
  5
7DE
 10
0.0
 20
0.0
 30
0.0
 70
   128
 71
    90
 72
     6
 73
    83
  0
VERTEX
  8
11TYP02-DIALS
  5
7DF
 10
0.0
 20
0.0
 30
0.0
 70
   128
 71
     6
 72
     8
 73
    83
  0
VERTEX
  8
11TYP02-DIALS
  5
7E0
 10
0.0
 20
0.0
 30
0.0
 70
   128
 71
     8
 72
    91
 73
    83
  0
VERTEX
  8
11TYP02-DIALS
  5
7E1
 10
0.0
 20
0.0
 30
0.0
 70
   128
 71
    91
 72
    11
 73
    83
  0
VERTEX
  8
11TYP02-DIALS
  5
7E2
 10
0.0
 20
0.0
 30
0.0
 70
   128
 71
    13
 72
    14
 73
    83
  0
VERTEX
  8
11TYP02-DIALS
  5
7E3
 10
0.0
 20
0.0
 30
0.0
 70
   128
 71
    14
 72
    92
 73
    83
  0
VERTEX
  8
11TYP02-DIALS
  5
7E4
 10
0.0
 20
0.0
 30
0.0
 70
   128
 71
    92
 72
    84
 73
    83
  0
VERTEX
  8
11TYP02-DIALS
  5
7E5
 10
0.0
 20
0.0
 30
0.0
 70
   128
 71
    84
 72
    85
 73
    83
  0
VERTEX
  8
11TYP02-DIALS
  5
7E6
 10
0.0
 20
0.0
 30
0.0
 70
   128
 71
    85
 72
    93
 73
    83
  0
VERTEX
  8
11TYP02-DIALS
  5
7E7
 10
0.0
 20
0.0
 30
0.0
 70
   128
 71
    93
 72
    86
 73
    83
  0
VERTEX
  8
11TYP02-DIALS
  5
7E8
 10
0.0
 20
0.0
 30
0.0
 70
   128
 71
    86
 72
    18
 73
    83
  0
VERTEX
  8
11TYP02-DIALS
  5
7E9
 10
0.0
 20
0.0
 30
0.0
 70
   128
 71
    18
 72
    94
 73
    83
  0
VERTEX
  8
11TYP02-DIALS
  5
7EA
 10
0.0
 20
0.0
 30
0.0
 70
   128
 71
    94
 72
    21
 73
    83
  0
VERTEX
  8
11TYP02-DIALS
  5
7EB
 10
0.0
 20
0.0
 30
0.0
 70
   128
 71
    21
 72
    87
 73
    83
  0
VERTEX
  8
11TYP02-DIALS
  5
7EC
 10
0.0
 20
0.0
 30
0.0
 70
   128
 71
    87
 72
    88
 73
    83
  0
VERTEX
  8
11TYP02-DIALS
  5
7ED
 10
0.0
 20
0.0
 30
0.0
 70
   128
 71
    96
 72
    99
 73
    95
  0
VERTEX
  8
11TYP02-DIALS
  5
7EE
 10
0.0
 20
0.0
 30
0.0
 70
   128
 71
    22
 72
    99
 73
    95
  0
VERTEX
  8
11TYP02-DIALS
  5
7EF
 10
0.0
 20
0.0
 30
0.0
 70
   128
 71
    97
 72
    22
 73
    95
  0
VERTEX
  8
11TYP02-DIALS
  5
7F0
 10
0.0
 20
0.0
 30
0.0
 70
   128
 71
    97
 72
    96
 73
    95
  0
VERTEX
  8
11TYP02-DIALS
  5
7F1
 10
0.0
 20
0.0
 30
0.0
 70
   128
 71
    96
 72
    99
 73
    95
  0
VERTEX
  8
11TYP02-DIALS
  5
7F2
 10
0.0
 20
0.0
 30
0.0
 70
   128
 71
    22
 72
    99
 73
    95
  0
VERTEX
  8
11TYP02-DIALS
  5
7F3
 10
0.0
 20
0.0
 30
0.0
 70
   128
 71
    97
 72
    22
 73
    95
  0
VERTEX
  8
11TYP02-DIALS
  5
7F4
 10
0.0
 20
0.0
 30
0.0
 70
   128
 71
    97
 72
    96
 73
    95
  0
VERTEX
  8
11TYP02-DIALS
  5
7F5
 10
0.0
 20
0.0
 30
0.0
 70
   128
 71
    99
 72
     1
 73
    98
  0
VERTEX
  8
11TYP02-DIALS
  5
7F6
 10
0.0
 20
0.0
 30
0.0
 70
   128
 71
     2
 72
    99
 73
    98
  0
VERTEX
  8
11TYP02-DIALS
  5
7F7
 10
0.0
 20
0.0
 30
0.0
 70
   128
 71
   100
 72
     2
 73
    98
  0
VERTEX
  8
11TYP02-DIALS
  5
7F8
 10
0.0
 20
0.0
 30
0.0
 70
   128
 71
   103
 72
   100
 73
    98
  0
VERTEX
  8
11TYP02-DIALS
  5
7F9
 10
0.0
 20
0.0
 30
0.0
 70
   128
 71
     4
 72
   103
 73
    98
  0
VERTEX
  8
11TYP02-DIALS
  5
7FA
 10
0.0
 20
0.0
 30
0.0
 70
   128
 71
   104
 72
     4
 73
    98
  0
VERTEX
  8
11TYP02-DIALS
  5
7FB
 10
0.0
 20
0.0
 30
0.0
 70
   128
 71
   101
 72
   104
 73
    98
  0
VERTEX
  8
11TYP02-DIALS
  5
7FC
 10
0.0
 20
0.0
 30
0.0
 70
   128
 71
   105
 72
   101
 73
    98
  0
VERTEX
  8
11TYP02-DIALS
  5
7FD
 10
0.0
 20
0.0
 30
0.0
 70
   128
 71
     7
 72
   105
 73
    98
  0
VERTEX
  8
11TYP02-DIALS
  5
7FE
 10
0.0
 20
0.0
 30
0.0
 70
   128
 71
     9
 72
     7
 73
    98
  0
VERTEX
  8
11TYP02-DIALS
  5
7FF
 10
0.0
 20
0.0
 30
0.0
 70
   128
 71
    10
 72
     9
 73
    98
  0
VERTEX
  8
11TYP02-DIALS
  5
800
 10
0.0
 20
0.0
 30
0.0
 70
   128
 71
    15
 72
    12
 73
    98
  0
VERTEX
  8
11TYP02-DIALS
  5
801
 10
0.0
 20
0.0
 30
0.0
 70
   128
 71
   106
 72
    15
 73
    98
  0
VERTEX
  8
11TYP02-DIALS
  5
802
 10
0.0
 20
0.0
 30
0.0
 70
   128
 71
    16
 72
   106
 73
    98
  0
VERTEX
  8
11TYP02-DIALS
  5
803
 10
0.0
 20
0.0
 30
0.0
 70
   128
 71
    17
 72
    16
 73
    98
  0
VERTEX
  8
11TYP02-DIALS
  5
804
 10
0.0
 20
0.0
 30
0.0
 70
   128
 71
   102
 72
    17
 73
    98
  0
VERTEX
  8
11TYP02-DIALS
  5
805
 10
0.0
 20
0.0
 30
0.0
 70
   128
 71
   107
 72
   102
 73
    98
  0
VERTEX
  8
11TYP02-DIALS
  5
806
 10
0.0
 20
0.0
 30
0.0
 70
   128
 71
    19
 72
   107
 73
    98
  0
VERTEX
  8
11TYP02-DIALS
  5
807
 10
0.0
 20
0.0
 30
0.0
 70
   128
 71
   108
 72
    19
 73
    98
  0
VERTEX
  8
11TYP02-DIALS
  5
808
 10
0.0
 20
0.0
 30
0.0
 70
   128
 71
    20
 72
   108
 73
    98
  0
VERTEX
  8
11TYP02-DIALS
  5
809
 10
0.0
 20
0.0
 30
0.0
 70
   128
 71
    96
 72
    20
 73
    98
  0
VERTEX
  8
11TYP02-DIALS
  5
80A
 10
0.0
 20
0.0
 30
0.0
 70
   128
 71
     1
 72
    96
 73
    98
  0
VERTEX
  8
11TYP02-DIALS
  5
80B
 10
0.0
 20
0.0
 30
0.0
 70
   128
 71
    99
 72
     1
 73
    98
  0
VERTEX
  8
11TYP02-DIALS
  5
80C
 10
0.0
 20
0.0
 30
0.0
 70
   128
 71
     2
 72
    99
 73
    98
  0
VERTEX
  8
11TYP02-DIALS
  5
80D
 10
0.0
 20
0.0
 30
0.0
 70
   128
 71
   100
 72
     2
 73
    98
  0
VERTEX
  8
11TYP02-DIALS
  5
80E
 10
0.0
 20
0.0
 30
0.0
 70
   128
 71
   103
 72
   100
 73
    98
  0
VERTEX
  8
11TYP02-DIALS
  5
80F
 10
0.0
 20
0.0
 30
0.0
 70
   128
 71
     4
 72
   103
 73
    98
  0
VERTEX
  8
11TYP02-DIALS
  5
810
 10
0.0
 20
0.0
 30
0.0
 70
   128
 71
   104
 72
     4
 73
    98
  0
VERTEX
  8
11TYP02-DIALS
  5
811
 10
0.0
 20
0.0
 30
0.0
 70
   128
 71
   101
 72
   104
 73
    98
  0
VERTEX
  8
11TYP02-DIALS
  5
812
 10
0.0
 20
0.0
 30
0.0
 70
   128
 71
   105
 72
   101
 73
    98
  0
VERTEX
  8
11TYP02-DIALS
  5
813
 10
0.0
 20
0.0
 30
0.0
 70
   128
 71
     7
 72
   105
 73
    98
  0
VERTEX
  8
11TYP02-DIALS
  5
814
 10
0.0
 20
0.0
 30
0.0
 70
   128
 71
     9
 72
     7
 73
    98
  0
VERTEX
  8
11TYP02-DIALS
  5
815
 10
0.0
 20
0.0
 30
0.0
 70
   128
 71
    10
 72
     9
 73
    98
  0
VERTEX
  8
11TYP02-DIALS
  5
816
 10
0.0
 20
0.0
 30
0.0
 70
   128
 71
    15
 72
    12
 73
    98
  0
VERTEX
  8
11TYP02-DIALS
  5
817
 10
0.0
 20
0.0
 30
0.0
 70
   128
 71
   106
 72
    15
 73
    98
  0
VERTEX
  8
11TYP02-DIALS
  5
818
 10
0.0
 20
0.0
 30
0.0
 70
   128
 71
    16
 72
   106
 73
    98
  0
VERTEX
  8
11TYP02-DIALS
  5
819
 10
0.0
 20
0.0
 30
0.0
 70
   128
 71
    17
 72
    16
 73
    98
  0
VERTEX
  8
11TYP02-DIALS
  5
81A
 10
0.0
 20
0.0
 30
0.0
 70
   128
 71
   102
 72
    17
 73
    98
  0
VERTEX
  8
11TYP02-DIALS
  5
81B
 10
0.0
 20
0.0
 30
0.0
 70
   128
 71
   107
 72
   102
 73
    98
  0
VERTEX
  8
11TYP02-DIALS
  5
81C
 10
0.0
 20
0.0
 30
0.0
 70
   128
 71
    19
 72
   107
 73
    98
  0
VERTEX
  8
11TYP02-DIALS
  5
81D
 10
0.0
 20
0.0
 30
0.0
 70
   128
 71
   108
 72
    19
 73
    98
  0
VERTEX
  8
11TYP02-DIALS
  5
81E
 10
0.0
 20
0.0
 30
0.0
 70
   128
 71
    20
 72
   108
 73
    98
  0
VERTEX
  8
11TYP02-DIALS
  5
81F
 10
0.0
 20
0.0
 30
0.0
 70
   128
 71
    96
 72
    20
 73
    98
  0
VERTEX
  8
11TYP02-DIALS
  5
820
 10
0.0
 20
0.0
 30
0.0
 70
   128
 71
     1
 72
    96
 73
    98
  0
VERTEX
  8
11TYP02-DIALS
  5
821
 10
0.0
 20
0.0
 30
0.0
 70
   128
 71
    77
 72
   -78
 73
    87
  0
VERTEX
  8
11TYP02-DIALS
  5
822
 10
0.0
 20
0.0
 30
0.0
 70
   128
 71
    79
 72
   -87
 73
    78
  0
SEQEND
  8
11TYP02-DIALS
  5
823
  0
POLYLINE
  8
11TYP02-GUIDE1
  5
83D
 66
     1
 10
0.0
 20
0.0
 30
0.0
 70
    64
 71
    36
 72
    36
1001
AVE_ENTITY_MATERIAL
1002
{
1000

1002
{
1071
        0
1070
     0
1070
     0
1002
{
1070
     0
1070
     0
1070
     0
1040
0.0
1002
}
1070
     0
1070
     0
1002
{
1002
}
1002
}
1002
{
1002
}
1002
{
1002
}
1011
0.0
1021
0.0
1031
0.0
1011
1.0
1021
0.0
1031
0.0
1011
0.0
1021
1.0
1031
0.0
1011
0.0
1021
0.0
1031
1.0
1002
}
1001
AVE_FINISH
1002
{
1070
     0
1005
65B
1002
}
  0
VERTEX
  8
11TYP02-GUIDE1
  5
83E
 10
2.401
 20
14.522
 30
3.524
 70
   192
  0
VERTEX
  8
11TYP02-GUIDE1
  5
83F
 10
2.42
 20
1.886
 30
3.528
 70
   192
  0
VERTEX
  8
11TYP02-GUIDE1
  5
840
 10
2.438
 20
14.522
 30
3.538
 70
   192
  0
VERTEX
  8
11TYP02-GUIDE1
  5
841
 10
2.42
 20
14.522
 30
3.528
 70
   192
  0
VERTEX
  8
11TYP02-GUIDE1
  5
842
 10
2.438
 20
1.886
 30
3.538
 70
   192
  0
VERTEX
  8
11TYP02-GUIDE1
  5
843
 10
2.451
 20
14.522
 30
3.553
 70
   192
  0
VERTEX
  8
11TYP02-GUIDE1
  5
844
 10
2.451
 20
1.886
 30
3.553
 70
   192
  0
VERTEX
  8
11TYP02-GUIDE1
  5
845
 10
2.458
 20
1.886
 30
3.571
 70
   192
  0
VERTEX
  8
11TYP02-GUIDE1
  5
846
 10
2.458
 20
14.522
 30
3.571
 70
   192
  0
VERTEX
  8
11TYP02-GUIDE1
  5
847
 10
2.458
 20
1.886
 30
3.592
 70
   192
  0
VERTEX
  8
11TYP02-GUIDE1
  5
848
 10
2.451
 20
1.886
 30
3.611
 70
   192
  0
VERTEX
  8
11TYP02-GUIDE1
  5
849
 10
2.458
 20
14.522
 30
3.592
 70
   192
  0
VERTEX
  8
11TYP02-GUIDE1
  5
84A
 10
2.439
 20
1.886
 30
3.626
 70
   192
  0
VERTEX
  8
11TYP02-GUIDE1
  5
84B
 10
2.451
 20
14.522
 30
3.611
 70
   192
  0
VERTEX
  8
11TYP02-GUIDE1
  5
84C
 10
2.422
 20
1.886
 30
3.636
 70
   192
  0
VERTEX
  8
11TYP02-GUIDE1
  5
84D
 10
2.422
 20
14.522
 30
3.636
 70
   192
  0
VERTEX
  8
11TYP02-GUIDE1
  5
84E
 10
2.439
 20
14.522
 30
3.626
 70
   192
  0
VERTEX
  8
11TYP02-GUIDE1
  5
84F
 10
2.402
 20
14.522
 30
3.64
 70
   192
  0
VERTEX
  8
11TYP02-GUIDE1
  5
850
 10
2.402
 20
1.886
 30
3.64
 70
   192
  0
VERTEX
  8
11TYP02-GUIDE1
  5
851
 10
2.365
 20
14.522
 30
3.628
 70
   192
  0
VERTEX
  8
11TYP02-GUIDE1
  5
852
 10
2.383
 20
14.522
 30
3.637
 70
   192
  0
VERTEX
  8
11TYP02-GUIDE1
  5
853
 10
2.383
 20
1.886
 30
3.637
 70
   192
  0
VERTEX
  8
11TYP02-GUIDE1
  5
854
 10
2.365
 20
1.886
 30
3.628
 70
   192
  0
VERTEX
  8
11TYP02-GUIDE1
  5
855
 10
2.351
 20
14.522
 30
3.612
 70
   192
  0
VERTEX
  8
11TYP02-GUIDE1
  5
856
 10
2.351
 20
1.886
 30
3.612
 70
   192
  0
VERTEX
  8
11TYP02-GUIDE1
  5
857
 10
2.344
 20
1.886
 30
3.594
 70
   192
  0
VERTEX
  8
11TYP02-GUIDE1
  5
858
 10
2.344
 20
1.886
 30
3.574
 70
   192
  0
VERTEX
  8
11TYP02-GUIDE1
  5
859
 10
2.344
 20
14.522
 30
3.574
 70
   192
  0
VERTEX
  8
11TYP02-GUIDE1
  5
85A
 10
2.344
 20
14.522
 30
3.594
 70
   192
  0
VERTEX
  8
11TYP02-GUIDE1
  5
85B
 10
2.351
 20
1.886
 30
3.554
 70
   192
  0
VERTEX
  8
11TYP02-GUIDE1
  5
85C
 10
2.351
 20
14.522
 30
3.554
 70
   192
  0
VERTEX
  8
11TYP02-GUIDE1
  5
85D
 10
2.363
 20
1.886
 30
3.539
 70
   192
  0
VERTEX
  8
11TYP02-GUIDE1
  5
85E
 10
2.38
 20
1.886
 30
3.529
 70
   192
  0
VERTEX
  8
11TYP02-GUIDE1
  5
85F
 10
2.363
 20
14.522
 30
3.539
 70
   192
  0
VERTEX
  8
11TYP02-GUIDE1
  5
860
 10
2.38
 20
14.522
 30
3.529
 70
   192
  0
VERTEX
  8
11TYP02-GUIDE1
  5
861
 10
2.401
 20
1.886
 30
3.524
 70
   192
  0
VERTEX
  8
11TYP02-GUIDE1
  5
862
 10
0.0
 20
0.0
 30
0.0
 70
   128
 71
     1
 72
     4
 73
    -2
  0
VERTEX
  8
11TYP02-GUIDE1
  5
863
 10
0.0
 20
0.0
 30
0.0
 70
   128
 71
     2
 72
    36
 73
    -1
  0
VERTEX
  8
11TYP02-GUIDE1
  5
864
 10
0.0
 20
0.0
 30
0.0
 70
   128
 71
     4
 72
     3
 73
    -5
  0
VERTEX
  8
11TYP02-GUIDE1
  5
865
 10
0.0
 20
0.0
 30
0.0
 70
   128
 71
     5
 72
     2
 73
    -4
  0
VERTEX
  8
11TYP02-GUIDE1
  5
866
 10
0.0
 20
0.0
 30
0.0
 70
   128
 71
     3
 72
     6
 73
    -7
  0
VERTEX
  8
11TYP02-GUIDE1
  5
867
 10
0.0
 20
0.0
 30
0.0
 70
   128
 71
     7
 72
     5
 73
    -3
  0
VERTEX
  8
11TYP02-GUIDE1
  5
868
 10
0.0
 20
0.0
 30
0.0
 70
   128
 71
     6
 72
     9
 73
    -8
  0
VERTEX
  8
11TYP02-GUIDE1
  5
869
 10
0.0
 20
0.0
 30
0.0
 70
   128
 71
     8
 72
     7
 73
    -6
  0
VERTEX
  8
11TYP02-GUIDE1
  5
86A
 10
0.0
 20
0.0
 30
0.0
 70
   128
 71
     9
 72
    12
 73
   -10
  0
VERTEX
  8
11TYP02-GUIDE1
  5
86B
 10
0.0
 20
0.0
 30
0.0
 70
   128
 71
    10
 72
     8
 73
    -9
  0
VERTEX
  8
11TYP02-GUIDE1
  5
86C
 10
0.0
 20
0.0
 30
0.0
 70
   128
 71
    12
 72
    14
 73
   -11
  0
VERTEX
  8
11TYP02-GUIDE1
  5
86D
 10
0.0
 20
0.0
 30
0.0
 70
   128
 71
    11
 72
    10
 73
   -12
  0
VERTEX
  8
11TYP02-GUIDE1
  5
86E
 10
0.0
 20
0.0
 30
0.0
 70
   128
 71
    14
 72
    17
 73
   -13
  0
VERTEX
  8
11TYP02-GUIDE1
  5
86F
 10
0.0
 20
0.0
 30
0.0
 70
   128
 71
    13
 72
    11
 73
   -14
  0
VERTEX
  8
11TYP02-GUIDE1
  5
870
 10
0.0
 20
0.0
 30
0.0
 70
   128
 71
    17
 72
    16
 73
   -15
  0
VERTEX
  8
11TYP02-GUIDE1
  5
871
 10
0.0
 20
0.0
 30
0.0
 70
   128
 71
    15
 72
    13
 73
   -17
  0
VERTEX
  8
11TYP02-GUIDE1
  5
872
 10
0.0
 20
0.0
 30
0.0
 70
   128
 71
    16
 72
    18
 73
   -19
  0
VERTEX
  8
11TYP02-GUIDE1
  5
873
 10
0.0
 20
0.0
 30
0.0
 70
   128
 71
    19
 72
    15
 73
   -16
  0
VERTEX
  8
11TYP02-GUIDE1
  5
874
 10
0.0
 20
0.0
 30
0.0
 70
   128
 71
    18
 72
    21
 73
   -22
  0
VERTEX
  8
11TYP02-GUIDE1
  5
875
 10
0.0
 20
0.0
 30
0.0
 70
   128
 71
    22
 72
    19
 73
   -18
  0
VERTEX
  8
11TYP02-GUIDE1
  5
876
 10
0.0
 20
0.0
 30
0.0
 70
   128
 71
    21
 72
    20
 73
   -23
  0
VERTEX
  8
11TYP02-GUIDE1
  5
877
 10
0.0
 20
0.0
 30
0.0
 70
   128
 71
    23
 72
    22
 73
   -21
  0
VERTEX
  8
11TYP02-GUIDE1
  5
878
 10
0.0
 20
0.0
 30
0.0
 70
   128
 71
    20
 72
    24
 73
   -25
  0
VERTEX
  8
11TYP02-GUIDE1
  5
879
 10
0.0
 20
0.0
 30
0.0
 70
   128
 71
    25
 72
    23
 73
   -20
  0
VERTEX
  8
11TYP02-GUIDE1
  5
87A
 10
0.0
 20
0.0
 30
0.0
 70
   128
 71
    24
 72
    29
 73
   -26
  0
VERTEX
  8
11TYP02-GUIDE1
  5
87B
 10
0.0
 20
0.0
 30
0.0
 70
   128
 71
    26
 72
    25
 73
   -24
  0
VERTEX
  8
11TYP02-GUIDE1
  5
87C
 10
0.0
 20
0.0
 30
0.0
 70
   128
 71
    29
 72
    28
 73
   -27
  0
VERTEX
  8
11TYP02-GUIDE1
  5
87D
 10
0.0
 20
0.0
 30
0.0
 70
   128
 71
    27
 72
    26
 73
   -29
  0
VERTEX
  8
11TYP02-GUIDE1
  5
87E
 10
0.0
 20
0.0
 30
0.0
 70
   128
 71
    28
 72
    31
 73
   -30
  0
VERTEX
  8
11TYP02-GUIDE1
  5
87F
 10
0.0
 20
0.0
 30
0.0
 70
   128
 71
    30
 72
    27
 73
   -28
  0
VERTEX
  8
11TYP02-GUIDE1
  5
880
 10
0.0
 20
0.0
 30
0.0
 70
   128
 71
    31
 72
    34
 73
   -32
  0
VERTEX
  8
11TYP02-GUIDE1
  5
881
 10
0.0
 20
0.0
 30
0.0
 70
   128
 71
    32
 72
    30
 73
   -31
  0
VERTEX
  8
11TYP02-GUIDE1
  5
882
 10
0.0
 20
0.0
 30
0.0
 70
   128
 71
    34
 72
    35
 73
   -33
  0
VERTEX
  8
11TYP02-GUIDE1
  5
883
 10
0.0
 20
0.0
 30
0.0
 70
   128
 71
    33
 72
    32
 73
   -34
  0
VERTEX
  8
11TYP02-GUIDE1
  5
884
 10
0.0
 20
0.0
 30
0.0
 70
   128
 71
    35
 72
     1
 73
   -36
  0
VERTEX
  8
11TYP02-GUIDE1
  5
885
 10
0.0
 20
0.0
 30
0.0
 70
   128
 71
    36
 72
    33
 73
   -35
  0
SEQEND
  8
11TYP02-GUIDE1
  5
886
  0
POLYLINE
  8
11TYP02-GUIDE2
  5
887
 66
     1
 10
0.0
 20
0.0
 30
0.0
 70
    64
 71
    96
 72
    96
1001
AVE_ENTITY_MATERIAL
1002
{
1000

1002
{
1071
        0
1070
     0
1070
     0
1002
{
1070
     0
1070
     0
1070
     0
1040
0.0
1002
}
1070
     0
1070
     0
1002
{
1002
}
1002
}
1002
{
1002
}
1002
{
1002
}
1011
0.0
1021
0.0
1031
0.0
1011
1.0
1021
0.0
1031
0.0
1011
0.0
1021
1.0
1031
0.0
1011
0.0
1021
0.0
1031
1.0
1002
}
1001
AVE_FINISH
1002
{
1070
     0
1005
65B
1002
}
  0
VERTEX
  8
11TYP02-GUIDE2
  5
888
 10
2.366
 20
6.308
 30
3.456
 70
   192
  0
VERTEX
  8
11TYP02-GUIDE2
  5
889
 10
2.399
 20
6.308
 30
3.451
 70
   192
  0
VERTEX
  8
11TYP02-GUIDE2
  5
88A
 10
2.335
 20
5.491
 30
3.469
 70
   192
  0
VERTEX
  8
11TYP02-GUIDE2
  5
88B
 10
2.366
 20
5.491
 30
3.456
 70
   192
  0
VERTEX
  8
11TYP02-GUIDE2
  5
88C
 10
2.335
 20
6.308
 30
3.469
 70
   192
  0
VERTEX
  8
11TYP02-GUIDE2
  5
88D
 10
2.308
 20
6.308
 30
3.491
 70
   192
  0
VERTEX
  8
11TYP02-GUIDE2
  5
88E
 10
2.308
 20
5.491
 30
3.491
 70
   192
  0
VERTEX
  8
11TYP02-GUIDE2
  5
88F
 10
2.289
 20
5.491
 30
3.517
 70
   192
  0
VERTEX
  8
11TYP02-GUIDE2
  5
890
 10
2.289
 20
6.308
 30
3.517
 70
   192
  0
VERTEX
  8
11TYP02-GUIDE2
  5
891
 10
2.276
 20
6.308
 30
3.55
 70
   192
  0
VERTEX
  8
11TYP02-GUIDE2
  5
892
 10
2.272
 20
5.491
 30
3.582
 70
   192
  0
VERTEX
  8
11TYP02-GUIDE2
  5
893
 10
2.276
 20
5.491
 30
3.55
 70
   192
  0
VERTEX
  8
11TYP02-GUIDE2
  5
894
 10
2.272
 20
6.308
 30
3.582
 70
   192
  0
VERTEX
  8
11TYP02-GUIDE2
  5
895
 10
2.277
 20
6.308
 30
3.616
 70
   192
  0
VERTEX
  8
11TYP02-GUIDE2
  5
896
 10
2.29
 20
6.308
 30
3.647
 70
   192
  0
VERTEX
  8
11TYP02-GUIDE2
  5
897
 10
2.29
 20
5.491
 30
3.647
 70
   192
  0
VERTEX
  8
11TYP02-GUIDE2
  5
898
 10
2.277
 20
5.491
 30
3.616
 70
   192
  0
VERTEX
  8
11TYP02-GUIDE2
  5
899
 10
2.312
 20
6.308
 30
3.673
 70
   192
  0
VERTEX
  8
11TYP02-GUIDE2
  5
89A
 10
2.312
 20
5.491
 30
3.673
 70
   192
  0
VERTEX
  8
11TYP02-GUIDE2
  5
89B
 10
2.338
 20
6.308
 30
3.692
 70
   192
  0
VERTEX
  8
11TYP02-GUIDE2
  5
89C
 10
2.338
 20
5.491
 30
3.692
 70
   192
  0
VERTEX
  8
11TYP02-GUIDE2
  5
89D
 10
2.369
 20
6.308
 30
3.706
 70
   192
  0
VERTEX
  8
11TYP02-GUIDE2
  5
89E
 10
2.369
 20
5.491
 30
3.706
 70
   192
  0
VERTEX
  8
11TYP02-GUIDE2
  5
89F
 10
2.403
 20
6.308
 30
3.709
 70
   192
  0
VERTEX
  8
11TYP02-GUIDE2
  5
8A0
 10
2.437
 20
6.308
 30
3.704
 70
   192
  0
VERTEX
  8
11TYP02-GUIDE2
  5
8A1
 10
2.437
 20
5.491
 30
3.704
 70
   192
  0
VERTEX
  8
11TYP02-GUIDE2
  5
8A2
 10
2.403
 20
5.491
 30
3.709
 70
   192
  0
VERTEX
  8
11TYP02-GUIDE2
  5
8A3
 10
2.468
 20
6.308
 30
3.691
 70
   192
  0
VERTEX
  8
11TYP02-GUIDE2
  5
8A4
 10
2.468
 20
5.491
 30
3.691
 70
   192
  0
VERTEX
  8
11TYP02-GUIDE2
  5
8A5
 10
2.494
 20
6.308
 30
3.67
 70
   192
  0
VERTEX
  8
11TYP02-GUIDE2
  5
8A6
 10
2.494
 20
5.491
 30
3.67
 70
   192
  0
VERTEX
  8
11TYP02-GUIDE2
  5
8A7
 10
2.513
 20
5.491
 30
3.643
 70
   192
  0
VERTEX
  8
11TYP02-GUIDE2
  5
8A8
 10
2.513
 20
6.308
 30
3.643
 70
   192
  0
VERTEX
  8
11TYP02-GUIDE2
  5
8A9
 10
2.527
 20
6.308
 30
3.611
 70
   192
  0
VERTEX
  8
11TYP02-GUIDE2
  5
8AA
 10
2.53
 20
5.491
 30
3.578
 70
   192
  0
VERTEX
  8
11TYP02-GUIDE2
  5
8AB
 10
2.527
 20
5.491
 30
3.611
 70
   192
  0
VERTEX
  8
11TYP02-GUIDE2
  5
8AC
 10
2.53
 20
6.308
 30
3.578
 70
   192
  0
VERTEX
  8
11TYP02-GUIDE2
  5
8AD
 10
2.512
 20
6.308
 30
3.514
 70
   192
  0
VERTEX
  8
11TYP02-GUIDE2
  5
8AE
 10
2.525
 20
5.491
 30
3.545
 70
   192
  0
VERTEX
  8
11TYP02-GUIDE2
  5
8AF
 10
2.525
 20
6.308
 30
3.545
 70
   192
  0
VERTEX
  8
11TYP02-GUIDE2
  5
8B0
 10
2.512
 20
5.491
 30
3.514
 70
   192
  0
VERTEX
  8
11TYP02-GUIDE2
  5
8B1
 10
2.491
 20
6.308
 30
3.487
 70
   192
  0
VERTEX
  8
11TYP02-GUIDE2
  5
8B2
 10
2.464
 20
6.308
 30
3.468
 70
   192
  0
VERTEX
  8
11TYP02-GUIDE2
  5
8B3
 10
2.491
 20
5.491
 30
3.487
 70
   192
  0
VERTEX
  8
11TYP02-GUIDE2
  5
8B4
 10
2.432
 20
6.308
 30
3.455
 70
   192
  0
VERTEX
  8
11TYP02-GUIDE2
  5
8B5
 10
2.464
 20
5.491
 30
3.468
 70
   192
  0
VERTEX
  8
11TYP02-GUIDE2
  5
8B6
 10
2.399
 20
5.491
 30
3.451
 70
   192
  0
VERTEX
  8
11TYP02-GUIDE2
  5
8B7
 10
2.432
 20
5.491
 30
3.455
 70
   192
  0
VERTEX
  8
11TYP02-GUIDE2
  5
8B8
 10
2.366
 20
10.913
 30
3.456
 70
   192
  0
VERTEX
  8
11TYP02-GUIDE2
  5
8B9
 10
2.399
 20
10.095
 30
3.451
 70
   192
  0
VERTEX
  8
11TYP02-GUIDE2
  5
8BA
 10
2.366
 20
10.095
 30
3.456
 70
   192
  0
VERTEX
  8
11TYP02-GUIDE2
  5
8BB
 10
2.308
 20
10.095
 30
3.491
 70
   192
  0
VERTEX
  8
11TYP02-GUIDE2
  5
8BC
 10
2.335
 20
10.913
 30
3.469
 70
   192
  0
VERTEX
  8
11TYP02-GUIDE2
  5
8BD
 10
2.335
 20
10.095
 30
3.469
 70
   192
  0
VERTEX
  8
11TYP02-GUIDE2
  5
8BE
 10
2.289
 20
10.095
 30
3.517
 70
   192
  0
VERTEX
  8
11TYP02-GUIDE2
  5
8BF
 10
2.289
 20
10.913
 30
3.517
 70
   192
  0
VERTEX
  8
11TYP02-GUIDE2
  5
8C0
 10
2.308
 20
10.913
 30
3.491
 70
   192
  0
VERTEX
  8
11TYP02-GUIDE2
  5
8C1
 10
2.276
 20
10.095
 30
3.55
 70
   192
  0
VERTEX
  8
11TYP02-GUIDE2
  5
8C2
 10
2.272
 20
10.913
 30
3.582
 70
   192
  0
VERTEX
  8
11TYP02-GUIDE2
  5
8C3
 10
2.276
 20
10.913
 30
3.55
 70
   192
  0
VERTEX
  8
11TYP02-GUIDE2
  5
8C4
 10
2.272
 20
10.095
 30
3.582
 70
   192
  0
VERTEX
  8
11TYP02-GUIDE2
  5
8C5
 10
2.277
 20
10.913
 30
3.616
 70
   192
  0
VERTEX
  8
11TYP02-GUIDE2
  5
8C6
 10
2.29
 20
10.095
 30
3.647
 70
   192
  0
VERTEX
  8
11TYP02-GUIDE2
  5
8C7
 10
2.29
 20
10.913
 30
3.647
 70
   192
  0
VERTEX
  8
11TYP02-GUIDE2
  5
8C8
 10
2.277
 20
10.095
 30
3.616
 70
   192
  0
VERTEX
  8
11TYP02-GUIDE2
  5
8C9
 10
2.312
 20
10.095
 30
3.673
 70
   192
  0
VERTEX
  8
11TYP02-GUIDE2
  5
8CA
 10
2.312
 20
10.913
 30
3.673
 70
   192
  0
VERTEX
  8
11TYP02-GUIDE2
  5
8CB
 10
2.338
 20
10.913
 30
3.692
 70
   192
  0
VERTEX
  8
11TYP02-GUIDE2
  5
8CC
 10
2.338
 20
10.095
 30
3.692
 70
   192
  0
VERTEX
  8
11TYP02-GUIDE2
  5
8CD
 10
2.369
 20
10.095
 30
3.706
 70
   192
  0
VERTEX
  8
11TYP02-GUIDE2
  5
8CE
 10
2.369
 20
10.913
 30
3.706
 70
   192
  0
VERTEX
  8
11TYP02-GUIDE2
  5
8CF
 10
2.403
 20
10.095
 30
3.709
 70
   192
  0
VERTEX
  8
11TYP02-GUIDE2
  5
8D0
 10
2.437
 20
10.095
 30
3.704
 70
   192
  0
VERTEX
  8
11TYP02-GUIDE2
  5
8D1
 10
2.403
 20
10.913
 30
3.709
 70
   192
  0
VERTEX
  8
11TYP02-GUIDE2
  5
8D2
 10
2.437
 20
10.913
 30
3.704
 70
   192
  0
VERTEX
  8
11TYP02-GUIDE2
  5
8D3
 10
2.494
 20
10.913
 30
3.67
 70
   192
  0
VERTEX
  8
11TYP02-GUIDE2
  5
8D4
 10
2.468
 20
10.913
 30
3.691
 70
   192
  0
VERTEX
  8
11TYP02-GUIDE2
  5
8D5
 10
2.468
 20
10.095
 30
3.691
 70
   192
  0
VERTEX
  8
11TYP02-GUIDE2
  5
8D6
 10
2.494
 20
10.095
 30
3.67
 70
   192
  0
VERTEX
  8
11TYP02-GUIDE2
  5
8D7
 10
2.513
 20
10.095
 30
3.643
 70
   192
  0
VERTEX
  8
11TYP02-GUIDE2
  5
8D8
 10
2.513
 20
10.913
 30
3.643
 70
   192
  0
VERTEX
  8
11TYP02-GUIDE2
  5
8D9
 10
2.527
 20
10.095
 30
3.611
 70
   192
  0
VERTEX
  8
11TYP02-GUIDE2
  5
8DA
 10
2.53
 20
10.095
 30
3.578
 70
   192
  0
VERTEX
  8
11TYP02-GUIDE2
  5
8DB
 10
2.53
 20
10.913
 30
3.578
 70
   192
  0
VERTEX
  8
11TYP02-GUIDE2
  5
8DC
 10
2.527
 20
10.913
 30
3.611
 70
   192
  0
VERTEX
  8
11TYP02-GUIDE2
  5
8DD
 10
2.525
 20
10.095
 30
3.545
 70
   192
  0
VERTEX
  8
11TYP02-GUIDE2
  5
8DE
 10
2.525
 20
10.913
 30
3.545
 70
   192
  0
VERTEX
  8
11TYP02-GUIDE2
  5
8DF
 10
2.512
 20
10.095
 30
3.514
 70
   192
  0
VERTEX
  8
11TYP02-GUIDE2
  5
8E0
 10
2.491
 20
10.095
 30
3.487
 70
   192
  0
VERTEX
  8
11TYP02-GUIDE2
  5
8E1
 10
2.512
 20
10.913
 30
3.514
 70
   192
  0
VERTEX
  8
11TYP02-GUIDE2
  5
8E2
 10
2.464
 20
10.095
 30
3.468
 70
   192
  0
VERTEX
  8
11TYP02-GUIDE2
  5
8E3
 10
2.464
 20
10.913
 30
3.468
 70
   192
  0
VERTEX
  8
11TYP02-GUIDE2
  5
8E4
 10
2.491
 20
10.913
 30
3.487
 70
   192
  0
VERTEX
  8
11TYP02-GUIDE2
  5
8E5
 10
2.432
 20
10.095
 30
3.455
 70
   192
  0
VERTEX
  8
11TYP02-GUIDE2
  5
8E6
 10
2.399
 20
10.913
 30
3.451
 70
   192
  0
VERTEX
  8
11TYP02-GUIDE2
  5
8E7
 10
2.432
 20
10.913
 30
3.455
 70
   192
  0
VERTEX
  8
11TYP02-GUIDE2
  5
8E8
 10
0.0
 20
0.0
 30
0.0
 70
   128
 71
    47
 72
     4
 73
    -1
  0
VERTEX
  8
11TYP02-GUIDE2
  5
8E9
 10
0.0
 20
0.0
 30
0.0
 70
   128
 71
     1
 72
     2
 73
   -47
  0
VERTEX
  8
11TYP02-GUIDE2
  5
8EA
 10
0.0
 20
0.0
 30
0.0
 70
   128
 71
     4
 72
     3
 73
    -5
  0
VERTEX
  8
11TYP02-GUIDE2
  5
8EB
 10
0.0
 20
0.0
 30
0.0
 70
   128
 71
     5
 72
     1
 73
    -4
  0
VERTEX
  8
11TYP02-GUIDE2
  5
8EC
 10
0.0
 20
0.0
 30
0.0
 70
   128
 71
     3
 72
     7
 73
    -6
  0
VERTEX
  8
11TYP02-GUIDE2
  5
8ED
 10
0.0
 20
0.0
 30
0.0
 70
   128
 71
     6
 72
     5
 73
    -3
  0
VERTEX
  8
11TYP02-GUIDE2
  5
8EE
 10
0.0
 20
0.0
 30
0.0
 70
   128
 71
     7
 72
     8
 73
    -9
  0
VERTEX
  8
11TYP02-GUIDE2
  5
8EF
 10
0.0
 20
0.0
 30
0.0
 70
   128
 71
     9
 72
     6
 73
    -7
  0
VERTEX
  8
11TYP02-GUIDE2
  5
8F0
 10
0.0
 20
0.0
 30
0.0
 70
   128
 71
     8
 72
    12
 73
   -10
  0
VERTEX
  8
11TYP02-GUIDE2
  5
8F1
 10
0.0
 20
0.0
 30
0.0
 70
   128
 71
    10
 72
     9
 73
    -8
  0
VERTEX
  8
11TYP02-GUIDE2
  5
8F2
 10
0.0
 20
0.0
 30
0.0
 70
   128
 71
    12
 72
    11
 73
   -13
  0
VERTEX
  8
11TYP02-GUIDE2
  5
8F3
 10
0.0
 20
0.0
 30
0.0
 70
   128
 71
    13
 72
    10
 73
   -12
  0
VERTEX
  8
11TYP02-GUIDE2
  5
8F4
 10
0.0
 20
0.0
 30
0.0
 70
   128
 71
    11
 72
    17
 73
   -14
  0
VERTEX
  8
11TYP02-GUIDE2
  5
8F5
 10
0.0
 20
0.0
 30
0.0
 70
   128
 71
    14
 72
    13
 73
   -11
  0
VERTEX
  8
11TYP02-GUIDE2
  5
8F6
 10
0.0
 20
0.0
 30
0.0
 70
   128
 71
    17
 72
    16
 73
   -15
  0
VERTEX
  8
11TYP02-GUIDE2
  5
8F7
 10
0.0
 20
0.0
 30
0.0
 70
   128
 71
    15
 72
    14
 73
   -17
  0
VERTEX
  8
11TYP02-GUIDE2
  5
8F8
 10
0.0
 20
0.0
 30
0.0
 70
   128
 71
    16
 72
    19
 73
   -18
  0
VERTEX
  8
11TYP02-GUIDE2
  5
8F9
 10
0.0
 20
0.0
 30
0.0
 70
   128
 71
    18
 72
    15
 73
   -16
  0
VERTEX
  8
11TYP02-GUIDE2
  5
8FA
 10
0.0
 20
0.0
 30
0.0
 70
   128
 71
    19
 72
    21
 73
   -20
  0
VERTEX
  8
11TYP02-GUIDE2
  5
8FB
 10
0.0
 20
0.0
 30
0.0
 70
   128
 71
    20
 72
    18
 73
   -19
  0
VERTEX
  8
11TYP02-GUIDE2
  5
8FC
 10
0.0
 20
0.0
 30
0.0
 70
   128
 71
    21
 72
    23
 73
   -22
  0
VERTEX
  8
11TYP02-GUIDE2
  5
8FD
 10
0.0
 20
0.0
 30
0.0
 70
   128
 71
    22
 72
    20
 73
   -21
  0
VERTEX
  8
11TYP02-GUIDE2
  5
8FE
 10
0.0
 20
0.0
 30
0.0
 70
   128
 71
    23
 72
    27
 73
   -24
  0
VERTEX
  8
11TYP02-GUIDE2
  5
8FF
 10
0.0
 20
0.0
 30
0.0
 70
   128
 71
    24
 72
    22
 73
   -23
  0
VERTEX
  8
11TYP02-GUIDE2
  5
900
 10
0.0
 20
0.0
 30
0.0
 70
   128
 71
    27
 72
    26
 73
   -25
  0
VERTEX
  8
11TYP02-GUIDE2
  5
901
 10
0.0
 20
0.0
 30
0.0
 70
   128
 71
    25
 72
    24
 73
   -27
  0
VERTEX
  8
11TYP02-GUIDE2
  5
902
 10
0.0
 20
0.0
 30
0.0
 70
   128
 71
    26
 72
    29
 73
   -28
  0
VERTEX
  8
11TYP02-GUIDE2
  5
903
 10
0.0
 20
0.0
 30
0.0
 70
   128
 71
    28
 72
    25
 73
   -26
  0
VERTEX
  8
11TYP02-GUIDE2
  5
904
 10
0.0
 20
0.0
 30
0.0
 70
   128
 71
    29
 72
    31
 73
   -30
  0
VERTEX
  8
11TYP02-GUIDE2
  5
905
 10
0.0
 20
0.0
 30
0.0
 70
   128
 71
    30
 72
    28
 73
   -29
  0
VERTEX
  8
11TYP02-GUIDE2
  5
906
 10
0.0
 20
0.0
 30
0.0
 70
   128
 71
    31
 72
    32
 73
   -33
  0
VERTEX
  8
11TYP02-GUIDE2
  5
907
 10
0.0
 20
0.0
 30
0.0
 70
   128
 71
    33
 72
    30
 73
   -31
  0
VERTEX
  8
11TYP02-GUIDE2
  5
908
 10
0.0
 20
0.0
 30
0.0
 70
   128
 71
    32
 72
    36
 73
   -34
  0
VERTEX
  8
11TYP02-GUIDE2
  5
909
 10
0.0
 20
0.0
 30
0.0
 70
   128
 71
    34
 72
    33
 73
   -32
  0
VERTEX
  8
11TYP02-GUIDE2
  5
90A
 10
0.0
 20
0.0
 30
0.0
 70
   128
 71
    36
 72
    35
 73
   -37
  0
VERTEX
  8
11TYP02-GUIDE2
  5
90B
 10
0.0
 20
0.0
 30
0.0
 70
   128
 71
    37
 72
    34
 73
   -36
  0
VERTEX
  8
11TYP02-GUIDE2
  5
90C
 10
0.0
 20
0.0
 30
0.0
 70
   128
 71
    35
 72
    39
 73
   -40
  0
VERTEX
  8
11TYP02-GUIDE2
  5
90D
 10
0.0
 20
0.0
 30
0.0
 70
   128
 71
    40
 72
    37
 73
   -35
  0
VERTEX
  8
11TYP02-GUIDE2
  5
90E
 10
0.0
 20
0.0
 30
0.0
 70
   128
 71
    39
 72
    41
 73
   -38
  0
VERTEX
  8
11TYP02-GUIDE2
  5
90F
 10
0.0
 20
0.0
 30
0.0
 70
   128
 71
    38
 72
    40
 73
   -39
  0
VERTEX
  8
11TYP02-GUIDE2
  5
910
 10
0.0
 20
0.0
 30
0.0
 70
   128
 71
    41
 72
    44
 73
   -42
  0
VERTEX
  8
11TYP02-GUIDE2
  5
911
 10
0.0
 20
0.0
 30
0.0
 70
   128
 71
    42
 72
    38
 73
   -41
  0
VERTEX
  8
11TYP02-GUIDE2
  5
912
 10
0.0
 20
0.0
 30
0.0
 70
   128
 71
    44
 72
    46
 73
   -43
  0
VERTEX
  8
11TYP02-GUIDE2
  5
913
 10
0.0
 20
0.0
 30
0.0
 70
   128
 71
    43
 72
    42
 73
   -44
  0
VERTEX
  8
11TYP02-GUIDE2
  5
914
 10
0.0
 20
0.0
 30
0.0
 70
   128
 71
    46
 72
    48
 73
   -45
  0
VERTEX
  8
11TYP02-GUIDE2
  5
915
 10
0.0
 20
0.0
 30
0.0
 70
   128
 71
    45
 72
    43
 73
   -46
  0
VERTEX
  8
11TYP02-GUIDE2
  5
916
 10
0.0
 20
0.0
 30
0.0
 70
   128
 71
    48
 72
    47
 73
    -2
  0
VERTEX
  8
11TYP02-GUIDE2
  5
917
 10
0.0
 20
0.0
 30
0.0
 70
   128
 71
     2
 72
    45
 73
   -48
  0
VERTEX
  8
11TYP02-GUIDE2
  5
918
 10
0.0
 20
0.0
 30
0.0
 70
   128
 71
    49
 72
   -95
 73
    51
  0
VERTEX
  8
11TYP02-GUIDE2
  5
919
 10
0.0
 20
0.0
 30
0.0
 70
   128
 71
    50
 72
   -51
 73
    95
  0
VERTEX
  8
11TYP02-GUIDE2
  5
91A
 10
0.0
 20
0.0
 30
0.0
 70
   128
 71
    53
 72
   -49
 73
    54
  0
VERTEX
  8
11TYP02-GUIDE2
  5
91B
 10
0.0
 20
0.0
 30
0.0
 70
   128
 71
    51
 72
   -54
 73
    49
  0
VERTEX
  8
11TYP02-GUIDE2
  5
91C
 10
0.0
 20
0.0
 30
0.0
 70
   128
 71
    57
 72
   -53
 73
    52
  0
VERTEX
  8
11TYP02-GUIDE2
  5
91D
 10
0.0
 20
0.0
 30
0.0
 70
   128
 71
    54
 72
   -52
 73
    53
  0
VERTEX
  8
11TYP02-GUIDE2
  5
91E
 10
0.0
 20
0.0
 30
0.0
 70
   128
 71
    56
 72
   -57
 73
    55
  0
VERTEX
  8
11TYP02-GUIDE2
  5
91F
 10
0.0
 20
0.0
 30
0.0
 70
   128
 71
    52
 72
   -55
 73
    57
  0
VERTEX
  8
11TYP02-GUIDE2
  5
920
 10
0.0
 20
0.0
 30
0.0
 70
   128
 71
    60
 72
   -56
 73
    58
  0
VERTEX
  8
11TYP02-GUIDE2
  5
921
 10
0.0
 20
0.0
 30
0.0
 70
   128
 71
    55
 72
   -58
 73
    56
  0
VERTEX
  8
11TYP02-GUIDE2
  5
922
 10
0.0
 20
0.0
 30
0.0
 70
   128
 71
    59
 72
   -60
 73
    61
  0
VERTEX
  8
11TYP02-GUIDE2
  5
923
 10
0.0
 20
0.0
 30
0.0
 70
   128
 71
    58
 72
   -61
 73
    60
  0
VERTEX
  8
11TYP02-GUIDE2
  5
924
 10
0.0
 20
0.0
 30
0.0
 70
   128
 71
    62
 72
   -59
 73
    65
  0
VERTEX
  8
11TYP02-GUIDE2
  5
925
 10
0.0
 20
0.0
 30
0.0
 70
   128
 71
    61
 72
   -65
 73
    59
  0
VERTEX
  8
11TYP02-GUIDE2
  5
926
 10
0.0
 20
0.0
 30
0.0
 70
   128
 71
    64
 72
   -62
 73
    63
  0
VERTEX
  8
11TYP02-GUIDE2
  5
927
 10
0.0
 20
0.0
 30
0.0
 70
   128
 71
    65
 72
   -63
 73
    62
  0
VERTEX
  8
11TYP02-GUIDE2
  5
928
 10
0.0
 20
0.0
 30
0.0
 70
   128
 71
    67
 72
   -64
 73
    66
  0
VERTEX
  8
11TYP02-GUIDE2
  5
929
 10
0.0
 20
0.0
 30
0.0
 70
   128
 71
    63
 72
   -66
 73
    64
  0
VERTEX
  8
11TYP02-GUIDE2
  5
92A
 10
0.0
 20
0.0
 30
0.0
 70
   128
 71
    68
 72
   -67
 73
    69
  0
VERTEX
  8
11TYP02-GUIDE2
  5
92B
 10
0.0
 20
0.0
 30
0.0
 70
   128
 71
    66
 72
   -69
 73
    67
  0
VERTEX
  8
11TYP02-GUIDE2
  5
92C
 10
0.0
 20
0.0
 30
0.0
 70
   128
 71
    71
 72
   -68
 73
    70
  0
VERTEX
  8
11TYP02-GUIDE2
  5
92D
 10
0.0
 20
0.0
 30
0.0
 70
   128
 71
    69
 72
   -70
 73
    68
  0
VERTEX
  8
11TYP02-GUIDE2
  5
92E
 10
0.0
 20
0.0
 30
0.0
 70
   128
 71
    74
 72
   -71
 73
    72
  0
VERTEX
  8
11TYP02-GUIDE2
  5
92F
 10
0.0
 20
0.0
 30
0.0
 70
   128
 71
    70
 72
   -72
 73
    71
  0
VERTEX
  8
11TYP02-GUIDE2
  5
930
 10
0.0
 20
0.0
 30
0.0
 70
   128
 71
    75
 72
   -74
 73
    73
  0
VERTEX
  8
11TYP02-GUIDE2
  5
931
 10
0.0
 20
0.0
 30
0.0
 70
   128
 71
    72
 72
   -73
 73
    74
  0
VERTEX
  8
11TYP02-GUIDE2
  5
932
 10
0.0
 20
0.0
 30
0.0
 70
   128
 71
    77
 72
   -75
 73
    78
  0
VERTEX
  8
11TYP02-GUIDE2
  5
933
 10
0.0
 20
0.0
 30
0.0
 70
   128
 71
    73
 72
   -78
 73
    75
  0
VERTEX
  8
11TYP02-GUIDE2
  5
934
 10
0.0
 20
0.0
 30
0.0
 70
   128
 71
    76
 72
   -77
 73
    79
  0
VERTEX
  8
11TYP02-GUIDE2
  5
935
 10
0.0
 20
0.0
 30
0.0
 70
   128
 71
    78
 72
   -79
 73
    77
  0
VERTEX
  8
11TYP02-GUIDE2
  5
936
 10
0.0
 20
0.0
 30
0.0
 70
   128
 71
    81
 72
   -76
 73
    80
  0
VERTEX
  8
11TYP02-GUIDE2
  5
937
 10
0.0
 20
0.0
 30
0.0
 70
   128
 71
    79
 72
   -80
 73
    76
  0
VERTEX
  8
11TYP02-GUIDE2
  5
938
 10
0.0
 20
0.0
 30
0.0
 70
   128
 71
    85
 72
   -81
 73
    82
  0
VERTEX
  8
11TYP02-GUIDE2
  5
939
 10
0.0
 20
0.0
 30
0.0
 70
   128
 71
    80
 72
   -82
 73
    81
  0
VERTEX
  8
11TYP02-GUIDE2
  5
93A
 10
0.0
 20
0.0
 30
0.0
 70
   128
 71
    84
 72
   -85
 73
    83
  0
VERTEX
  8
11TYP02-GUIDE2
  5
93B
 10
0.0
 20
0.0
 30
0.0
 70
   128
 71
    82
 72
   -83
 73
    85
  0
VERTEX
  8
11TYP02-GUIDE2
  5
93C
 10
0.0
 20
0.0
 30
0.0
 70
   128
 71
    87
 72
   -84
 73
    86
  0
VERTEX
  8
11TYP02-GUIDE2
  5
93D
 10
0.0
 20
0.0
 30
0.0
 70
   128
 71
    83
 72
   -86
 73
    84
  0
VERTEX
  8
11TYP02-GUIDE2
  5
93E
 10
0.0
 20
0.0
 30
0.0
 70
   128
 71
    90
 72
   -87
 73
    88
  0
VERTEX
  8
11TYP02-GUIDE2
  5
93F
 10
0.0
 20
0.0
 30
0.0
 70
   128
 71
    86
 72
   -88
 73
    87
  0
VERTEX
  8
11TYP02-GUIDE2
  5
940
 10
0.0
 20
0.0
 30
0.0
 70
   128
 71
    93
 72
   -90
 73
    89
  0
VERTEX
  8
11TYP02-GUIDE2
  5
941
 10
0.0
 20
0.0
 30
0.0
 70
   128
 71
    88
 72
   -89
 73
    90
  0
VERTEX
  8
11TYP02-GUIDE2
  5
942
 10
0.0
 20
0.0
 30
0.0
 70
   128
 71
    92
 72
   -93
 73
    91
  0
VERTEX
  8
11TYP02-GUIDE2
  5
943
 10
0.0
 20
0.0
 30
0.0
 70
   128
 71
    89
 72
   -91
 73
    93
  0
VERTEX
  8
11TYP02-GUIDE2
  5
944
 10
0.0
 20
0.0
 30
0.0
 70
   128
 71
    96
 72
   -92
 73
    94
  0
VERTEX
  8
11TYP02-GUIDE2
  5
945
 10
0.0
 20
0.0
 30
0.0
 70
   128
 71
    91
 72
   -94
 73
    92
  0
VERTEX
  8
11TYP02-GUIDE2
  5
946
 10
0.0
 20
0.0
 30
0.0
 70
   128
 71
    95
 72
   -96
 73
    50
  0
VERTEX
  8
11TYP02-GUIDE2
  5
947
 10
0.0
 20
0.0
 30
0.0
 70
   128
 71
    94
 72
   -50
 73
    96
  0
SEQEND
  8
11TYP02-GUIDE2
  5
948
  0
POLYLINE
  8
11TYP02-KEY1
  5
949
 66
     1
 10
0.0
 20
0.0
 30
0.0
 70
    64
 71
   297
 72
   576
1001
AVE_ENTITY_MATERIAL
1002
{
1000

1002
{
1071
        0
1070
     0
1070
     0
1002
{
1070
     0
1070
     0
1070
     0
1040
0.0
1002
}
1070
     0
1070
     0
1002
{
1002
}
1002
}
1002
{
1002
}
1002
{
1002
}
1011
0.0
1021
0.0
1031
0.0
1011
1.0
1021
0.0
1031
0.0
1011
0.0
1021
1.0
1031
0.0
1011
0.0
1021
0.0
1031
1.0
1002
}
1001
AVE_FINISH
1002
{
1070
     0
1005
65B
1002
}
  0
VERTEX
  8
11TYP02-KEY1
  5
94A
 10
10.155
 20
4.27
 30
2.548
 70
   192
  0
VERTEX
  8
11TYP02-KEY1
  5
94B
 10
9.701
 20
3.813
 30
2.605
 70
   192
  0
VERTEX
  8
11TYP02-KEY1
  5
94C
 10
10.155
 20
4.957
 30
2.548
 70
   192
  0
VERTEX
  8
11TYP02-KEY1
  5
94D
 10
9.701
 20
4.957
 30
2.605
 70
   192
  0
VERTEX
  8
11TYP02-KEY1
  5
94E
 10
9.701
 20
4.499
 30
2.605
 70
   192
  0
VERTEX
  8
11TYP02-KEY1
  5
94F
 10
10.214
 20
5.071
 30
2.098
 70
   192
  0
VERTEX
  8
11TYP02-KEY1
  5
950
 10
9.701
 20
5.185
 30
2.605
 70
   192
  0
VERTEX
  8
11TYP02-KEY1
  5
951
 10
9.533
 20
5.071
 30
2.184
 70
   192
  0
VERTEX
  8
11TYP02-KEY1
  5
952
 10
10.155
 20
5.871
 30
2.548
 70
   192
  0
VERTEX
  8
11TYP02-KEY1
  5
953
 10
10.214
 20
5.756
 30
2.098
 70
   192
  0
VERTEX
  8
11TYP02-KEY1
  5
954
 10
9.701
 20
6.328
 30
2.605
 70
   192
  0
VERTEX
  8
11TYP02-KEY1
  5
955
 10
9.701
 20
5.871
 30
2.605
 70
   192
  0
VERTEX
  8
11TYP02-KEY1
  5
956
 10
10.155
 20
6.556
 30
2.548
 70
   192
  0
VERTEX
  8
11TYP02-KEY1
  5
957
 10
9.701
 20
7.013
 30
2.605
 70
   192
  0
VERTEX
  8
11TYP02-KEY1
  5
958
 10
9.533
 20
7.129
 30
2.184
 70
   192
  0
VERTEX
  8
11TYP02-KEY1
  5
959
 10
10.155
 20
7.013
 30
2.548
 70
   192
  0
VERTEX
  8
11TYP02-KEY1
  5
95A
 10
9.533
 20
6.442
 30
2.184
 70
   192
  0
VERTEX
  8
11TYP02-KEY1
  5
95B
 10
9.701
 20
6.556
 30
2.605
 70
   192
  0
VERTEX
  8
11TYP02-KEY1
  5
95C
 10
10.214
 20
6.442
 30
2.098
 70
   192
  0
VERTEX
  8
11TYP02-KEY1
  5
95D
 10
10.155
 20
7.7
 30
2.548
 70
   192
  0
VERTEX
  8
11TYP02-KEY1
  5
95E
 10
9.701
 20
7.243
 30
2.605
 70
   192
  0
VERTEX
  8
11TYP02-KEY1
  5
95F
 10
10.155
 20
8.386
 30
2.548
 70
   192
  0
VERTEX
  8
11TYP02-KEY1
  5
960
 10
9.701
 20
8.386
 30
2.605
 70
   192
  0
VERTEX
  8
11TYP02-KEY1
  5
961
 10
9.701
 20
7.929
 30
2.605
 70
   192
  0
VERTEX
  8
11TYP02-KEY1
  5
962
 10
9.533
 20
7.814
 30
2.184
 70
   192
  0
VERTEX
  8
11TYP02-KEY1
  5
963
 10
10.155
 20
9.071
 30
2.548
 70
   192
  0
VERTEX
  8
11TYP02-KEY1
  5
964
 10
10.214
 20
9.185
 30
2.098
 70
   192
  0
VERTEX
  8
11TYP02-KEY1
  5
965
 10
10.155
 20
8.614
 30
2.548
 70
   192
  0
VERTEX
  8
11TYP02-KEY1
  5
966
 10
9.533
 20
9.185
 30
2.184
 70
   192
  0
VERTEX
  8
11TYP02-KEY1
  5
967
 10
9.701
 20
8.614
 30
2.605
 70
   192
  0
VERTEX
  8
11TYP02-KEY1
  5
968
 10
10.214
 20
8.5
 30
2.098
 70
   192
  0
VERTEX
  8
11TYP02-KEY1
  5
969
 10
9.701
 20
9.758
 30
2.605
 70
   192
  0
VERTEX
  8
11TYP02-KEY1
  5
96A
 10
10.214
 20
9.872
 30
2.098
 70
   192
  0
VERTEX
  8
11TYP02-KEY1
  5
96B
 10
10.155
 20
9.758
 30
2.548
 70
   192
  0
VERTEX
  8
11TYP02-KEY1
  5
96C
 10
9.533
 20
9.872
 30
2.184
 70
   192
  0
VERTEX
  8
11TYP02-KEY1
  5
96D
 10
9.701
 20
9.301
 30
2.605
 70
   192
  0
VERTEX
  8
11TYP02-KEY1
  5
96E
 10
10.155
 20
10.443
 30
2.548
 70
   192
  0
VERTEX
  8
11TYP02-KEY1
  5
96F
 10
10.214
 20
10.558
 30
2.098
 70
   192
  0
VERTEX
  8
11TYP02-KEY1
  5
970
 10
9.701
 20
9.986
 30
2.605
 70
   192
  0
VERTEX
  8
11TYP02-KEY1
  5
971
 10
10.214
 20
11.243
 30
2.098
 70
   192
  0
VERTEX
  8
11TYP02-KEY1
  5
972
 10
9.701
 20
11.129
 30
2.605
 70
   192
  0
VERTEX
  8
11TYP02-KEY1
  5
973
 10
10.155
 20
11.129
 30
2.548
 70
   192
  0
VERTEX
  8
11TYP02-KEY1
  5
974
 10
9.533
 20
11.243
 30
2.184
 70
   192
  0
VERTEX
  8
11TYP02-KEY1
  5
975
 10
9.701
 20
10.672
 30
2.605
 70
   192
  0
VERTEX
  8
11TYP02-KEY1
  5
976
 10
9.533
 20
10.558
 30
2.184
 70
   192
  0
VERTEX
  8
11TYP02-KEY1
  5
977
 10
10.155
 20
11.816
 30
2.548
 70
   192
  0
VERTEX
  8
11TYP02-KEY1
  5
978
 10
10.155
 20
11.359
 30
2.548
 70
   192
  0
VERTEX
  8
11TYP02-KEY1
  5
979
 10
9.533
 20
11.93
 30
2.184
 70
   192
  0
VERTEX
  8
11TYP02-KEY1
  5
97A
 10
10.837
 20
4.613
 30
2.462
 70
   192
  0
VERTEX
  8
11TYP02-KEY1
  5
97B
 10
10.894
 20
4.041
 30
2.012
 70
   192
  0
VERTEX
  8
11TYP02-KEY1
  5
97C
 10
10.383
 20
4.156
 30
2.519
 70
   192
  0
VERTEX
  8
11TYP02-KEY1
  5
97D
 10
10.837
 20
5.299
 30
2.462
 70
   192
  0
VERTEX
  8
11TYP02-KEY1
  5
97E
 10
10.894
 20
4.727
 30
2.012
 70
   192
  0
VERTEX
  8
11TYP02-KEY1
  5
97F
 10
10.383
 20
5.299
 30
2.519
 70
   192
  0
VERTEX
  8
11TYP02-KEY1
  5
980
 10
10.383
 20
4.841
 30
2.519
 70
   192
  0
VERTEX
  8
11TYP02-KEY1
  5
981
 10
10.214
 20
4.727
 30
2.098
 70
   192
  0
VERTEX
  8
11TYP02-KEY1
  5
982
 10
10.837
 20
4.841
 30
2.462
 70
   192
  0
VERTEX
  8
11TYP02-KEY1
  5
983
 10
10.837
 20
5.985
 30
2.462
 70
   192
  0
VERTEX
  8
11TYP02-KEY1
  5
984
 10
10.894
 20
6.099
 30
2.012
 70
   192
  0
VERTEX
  8
11TYP02-KEY1
  5
985
 10
10.837
 20
5.528
 30
2.462
 70
   192
  0
VERTEX
  8
11TYP02-KEY1
  5
986
 10
10.383
 20
5.528
 30
2.519
 70
   192
  0
VERTEX
  8
11TYP02-KEY1
  5
987
 10
10.383
 20
5.985
 30
2.519
 70
   192
  0
VERTEX
  8
11TYP02-KEY1
  5
988
 10
10.214
 20
5.414
 30
2.098
 70
   192
  0
VERTEX
  8
11TYP02-KEY1
  5
989
 10
10.894
 20
5.414
 30
2.012
 70
   192
  0
VERTEX
  8
11TYP02-KEY1
  5
98A
 10
10.837
 20
6.671
 30
2.462
 70
   192
  0
VERTEX
  8
11TYP02-KEY1
  5
98B
 10
10.214
 20
6.099
 30
2.098
 70
   192
  0
VERTEX
  8
11TYP02-KEY1
  5
98C
 10
10.383
 20
6.214
 30
2.519
 70
   192
  0
VERTEX
  8
11TYP02-KEY1
  5
98D
 10
10.214
 20
7.471
 30
2.098
 70
   192
  0
VERTEX
  8
11TYP02-KEY1
  5
98E
 10
10.837
 20
7.357
 30
2.462
 70
   192
  0
VERTEX
  8
11TYP02-KEY1
  5
98F
 10
10.383
 20
7.357
 30
2.519
 70
   192
  0
VERTEX
  8
11TYP02-KEY1
  5
990
 10
10.837
 20
8.043
 30
2.462
 70
   192
  0
VERTEX
  8
11TYP02-KEY1
  5
991
 10
10.214
 20
8.157
 30
2.098
 70
   192
  0
VERTEX
  8
11TYP02-KEY1
  5
992
 10
10.383
 20
8.043
 30
2.519
 70
   192
  0
VERTEX
  8
11TYP02-KEY1
  5
993
 10
10.383
 20
7.586
 30
2.519
 70
   192
  0
VERTEX
  8
11TYP02-KEY1
  5
994
 10
10.837
 20
8.271
 30
2.462
 70
   192
  0
VERTEX
  8
11TYP02-KEY1
  5
995
 10
10.837
 20
8.728
 30
2.462
 70
   192
  0
VERTEX
  8
11TYP02-KEY1
  5
996
 10
10.383
 20
8.728
 30
2.519
 70
   192
  0
VERTEX
  8
11TYP02-KEY1
  5
997
 10
10.383
 20
8.271
 30
2.519
 70
   192
  0
VERTEX
  8
11TYP02-KEY1
  5
998
 10
10.383
 20
9.415
 30
2.519
 70
   192
  0
VERTEX
  8
11TYP02-KEY1
  5
999
 10
10.837
 20
9.415
 30
2.462
 70
   192
  0
VERTEX
  8
11TYP02-KEY1
  5
99A
 10
10.383
 20
8.957
 30
2.519
 70
   192
  0
VERTEX
  8
11TYP02-KEY1
  5
99B
 10
10.214
 20
8.843
 30
2.098
 70
   192
  0
VERTEX
  8
11TYP02-KEY1
  5
99C
 10
10.837
 20
10.101
 30
2.462
 70
   192
  0
VERTEX
  8
11TYP02-KEY1
  5
99D
 10
10.894
 20
10.215
 30
2.012
 70
   192
  0
VERTEX
  8
11TYP02-KEY1
  5
99E
 10
10.214
 20
9.529
 30
2.098
 70
   192
  0
VERTEX
  8
11TYP02-KEY1
  5
99F
 10
10.383
 20
9.644
 30
2.519
 70
   192
  0
VERTEX
  8
11TYP02-KEY1
  5
9A0
 10
10.837
 20
10.329
 30
2.462
 70
   192
  0
VERTEX
  8
11TYP02-KEY1
  5
9A1
 10
10.383
 20
10.786
 30
2.519
 70
   192
  0
VERTEX
  8
11TYP02-KEY1
  5
9A2
 10
10.837
 20
11.473
 30
2.462
 70
   192
  0
VERTEX
  8
11TYP02-KEY1
  5
9A3
 10
10.383
 20
11.473
 30
2.519
 70
   192
  0
VERTEX
  8
11TYP02-KEY1
  5
9A4
 10
10.214
 20
11.587
 30
2.098
 70
   192
  0
VERTEX
  8
11TYP02-KEY1
  5
9A5
 10
10.894
 20
10.9
 30
2.012
 70
   192
  0
VERTEX
  8
11TYP02-KEY1
  5
9A6
 10
10.214
 20
10.9
 30
2.098
 70
   192
  0
VERTEX
  8
11TYP02-KEY1
  5
9A7
 10
10.383
 20
11.015
 30
2.519
 70
   192
  0
VERTEX
  8
11TYP02-KEY1
  5
9A8
 10
10.894
 20
12.273
 30
2.012
 70
   192
  0
VERTEX
  8
11TYP02-KEY1
  5
9A9
 10
10.383
 20
12.158
 30
2.519
 70
   192
  0
VERTEX
  8
11TYP02-KEY1
  5
9AA
 10
10.383
 20
11.701
 30
2.519
 70
   192
  0
VERTEX
  8
11TYP02-KEY1
  5
9AB
 10
10.894
 20
11.587
 30
2.012
 70
   192
  0
VERTEX
  8
11TYP02-KEY1
  5
9AC
 10
10.894
 20
4.899
 30
2.012
 70
   192
  0
VERTEX
  8
11TYP02-KEY1
  5
9AD
 10
11.517
 20
4.785
 30
2.376
 70
   192
  0
VERTEX
  8
11TYP02-KEY1
  5
9AE
 10
11.063
 20
4.785
 30
2.434
 70
   192
  0
VERTEX
  8
11TYP02-KEY1
  5
9AF
 10
11.575
 20
4.213
 30
1.926
 70
   192
  0
VERTEX
  8
11TYP02-KEY1
  5
9B0
 10
11.063
 20
4.328
 30
2.434
 70
   192
  0
VERTEX
  8
11TYP02-KEY1
  5
9B1
 10
11.575
 20
4.899
 30
1.926
 70
   192
  0
VERTEX
  8
11TYP02-KEY1
  5
9B2
 10
11.517
 20
5.47
 30
2.376
 70
   192
  0
VERTEX
  8
11TYP02-KEY1
  5
9B3
 10
11.063
 20
5.013
 30
2.434
 70
   192
  0
VERTEX
  8
11TYP02-KEY1
  5
9B4
 10
10.894
 20
5.585
 30
2.012
 70
   192
  0
VERTEX
  8
11TYP02-KEY1
  5
9B5
 10
10.894
 20
6.271
 30
2.012
 70
   192
  0
VERTEX
  8
11TYP02-KEY1
  5
9B6
 10
11.063
 20
6.157
 30
2.434
 70
   192
  0
VERTEX
  8
11TYP02-KEY1
  5
9B7
 10
11.063
 20
5.699
 30
2.434
 70
   192
  0
VERTEX
  8
11TYP02-KEY1
  5
9B8
 10
11.517
 20
6.843
 30
2.376
 70
   192
  0
VERTEX
  8
11TYP02-KEY1
  5
9B9
 10
11.063
 20
6.385
 30
2.434
 70
   192
  0
VERTEX
  8
11TYP02-KEY1
  5
9BA
 10
10.894
 20
6.957
 30
2.012
 70
   192
  0
VERTEX
  8
11TYP02-KEY1
  5
9BB
 10
11.063
 20
7.528
 30
2.434
 70
   192
  0
VERTEX
  8
11TYP02-KEY1
  5
9BC
 10
11.517
 20
7.528
 30
2.376
 70
   192
  0
VERTEX
  8
11TYP02-KEY1
  5
9BD
 10
11.063
 20
7.071
 30
2.434
 70
   192
  0
VERTEX
  8
11TYP02-KEY1
  5
9BE
 10
11.063
 20
7.757
 30
2.434
 70
   192
  0
VERTEX
  8
11TYP02-KEY1
  5
9BF
 10
10.894
 20
8.329
 30
2.012
 70
   192
  0
VERTEX
  8
11TYP02-KEY1
  5
9C0
 10
11.575
 20
7.642
 30
1.926
 70
   192
  0
VERTEX
  8
11TYP02-KEY1
  5
9C1
 10
11.517
 20
8.443
 30
2.376
 70
   192
  0
VERTEX
  8
11TYP02-KEY1
  5
9C2
 10
11.517
 20
8.9
 30
2.376
 70
   192
  0
VERTEX
  8
11TYP02-KEY1
  5
9C3
 10
11.063
 20
8.9
 30
2.434
 70
   192
  0
VERTEX
  8
11TYP02-KEY1
  5
9C4
 10
11.575
 20
9.7
 30
1.926
 70
   192
  0
VERTEX
  8
11TYP02-KEY1
  5
9C5
 10
11.063
 20
9.586
 30
2.434
 70
   192
  0
VERTEX
  8
11TYP02-KEY1
  5
9C6
 10
10.894
 20
9.015
 30
2.012
 70
   192
  0
VERTEX
  8
11TYP02-KEY1
  5
9C7
 10
11.063
 20
9.129
 30
2.434
 70
   192
  0
VERTEX
  8
11TYP02-KEY1
  5
9C8
 10
11.517
 20
10.273
 30
2.376
 70
   192
  0
VERTEX
  8
11TYP02-KEY1
  5
9C9
 10
11.063
 20
10.273
 30
2.434
 70
   192
  0
VERTEX
  8
11TYP02-KEY1
  5
9CA
 10
11.063
 20
9.814
 30
2.434
 70
   192
  0
VERTEX
  8
11TYP02-KEY1
  5
9CB
 10
11.517
 20
10.958
 30
2.376
 70
   192
  0
VERTEX
  8
11TYP02-KEY1
  5
9CC
 10
11.517
 20
10.501
 30
2.376
 70
   192
  0
VERTEX
  8
11TYP02-KEY1
  5
9CD
 10
10.894
 20
10.387
 30
2.012
 70
   192
  0
VERTEX
  8
11TYP02-KEY1
  5
9CE
 10
11.517
 20
11.187
 30
2.376
 70
   192
  0
VERTEX
  8
11TYP02-KEY1
  5
9CF
 10
10.894
 20
11.758
 30
2.012
 70
   192
  0
VERTEX
  8
11TYP02-KEY1
  5
9D0
 10
11.575
 20
11.758
 30
1.926
 70
   192
  0
VERTEX
  8
11TYP02-KEY1
  5
9D1
 10
11.063
 20
11.187
 30
2.434
 70
   192
  0
VERTEX
  8
11TYP02-KEY1
  5
9D2
 10
10.155
 20
3.584
 30
2.548
 70
   192
  0
VERTEX
  8
11TYP02-KEY1
  5
9D3
 10
9.533
 20
3.013
 30
2.184
 70
   192
  0
VERTEX
  8
11TYP02-KEY1
  5
9D4
 10
10.155
 20
3.127
 30
2.548
 70
   192
  0
VERTEX
  8
11TYP02-KEY1
  5
9D5
 10
9.701
 20
3.127
 30
2.605
 70
   192
  0
VERTEX
  8
11TYP02-KEY1
  5
9D6
 10
12.255
 20
5.071
 30
1.84
 70
   192
  0
VERTEX
  8
11TYP02-KEY1
  5
9D7
 10
12.197
 20
4.499
 30
2.29
 70
   192
  0
VERTEX
  8
11TYP02-KEY1
  5
9D8
 10
12.197
 20
4.957
 30
2.29
 70
   192
  0
VERTEX
  8
11TYP02-KEY1
  5
9D9
 10
11.575
 20
5.071
 30
1.926
 70
   192
  0
VERTEX
  8
11TYP02-KEY1
  5
9DA
 10
11.744
 20
4.957
 30
2.347
 70
   192
  0
VERTEX
  8
11TYP02-KEY1
  5
9DB
 10
12.255
 20
4.384
 30
1.84
 70
   192
  0
VERTEX
  8
11TYP02-KEY1
  5
9DC
 10
11.575
 20
4.384
 30
1.926
 70
   192
  0
VERTEX
  8
11TYP02-KEY1
  5
9DD
 10
11.744
 20
5.642
 30
2.347
 70
   192
  0
VERTEX
  8
11TYP02-KEY1
  5
9DE
 10
11.744
 20
5.185
 30
2.347
 70
   192
  0
VERTEX
  8
11TYP02-KEY1
  5
9DF
 10
12.197
 20
6.328
 30
2.29
 70
   192
  0
VERTEX
  8
11TYP02-KEY1
  5
9E0
 10
11.575
 20
6.442
 30
1.926
 70
   192
  0
VERTEX
  8
11TYP02-KEY1
  5
9E1
 10
11.575
 20
5.756
 30
1.926
 70
   192
  0
VERTEX
  8
11TYP02-KEY1
  5
9E2
 10
11.744
 20
5.871
 30
2.347
 70
   192
  0
VERTEX
  8
11TYP02-KEY1
  5
9E3
 10
12.255
 20
7.129
 30
1.84
 70
   192
  0
VERTEX
  8
11TYP02-KEY1
  5
9E4
 10
11.744
 20
7.013
 30
2.347
 70
   192
  0
VERTEX
  8
11TYP02-KEY1
  5
9E5
 10
11.575
 20
7.129
 30
1.926
 70
   192
  0
VERTEX
  8
11TYP02-KEY1
  5
9E6
 10
12.197
 20
6.556
 30
2.29
 70
   192
  0
VERTEX
  8
11TYP02-KEY1
  5
9E7
 10
12.197
 20
7.7
 30
2.29
 70
   192
  0
VERTEX
  8
11TYP02-KEY1
  5
9E8
 10
12.255
 20
7.814
 30
1.84
 70
   192
  0
VERTEX
  8
11TYP02-KEY1
  5
9E9
 10
11.744
 20
7.7
 30
2.347
 70
   192
  0
VERTEX
  8
11TYP02-KEY1
  5
9EA
 10
11.744
 20
7.243
 30
2.347
 70
   192
  0
VERTEX
  8
11TYP02-KEY1
  5
9EB
 10
11.744
 20
8.386
 30
2.347
 70
   192
  0
VERTEX
  8
11TYP02-KEY1
  5
9EC
 10
12.197
 20
8.386
 30
2.29
 70
   192
  0
VERTEX
  8
11TYP02-KEY1
  5
9ED
 10
12.197
 20
9.071
 30
2.29
 70
   192
  0
VERTEX
  8
11TYP02-KEY1
  5
9EE
 10
11.744
 20
9.071
 30
2.347
 70
   192
  0
VERTEX
  8
11TYP02-KEY1
  5
9EF
 10
12.197
 20
8.614
 30
2.29
 70
   192
  0
VERTEX
  8
11TYP02-KEY1
  5
9F0
 10
12.255
 20
8.5
 30
1.84
 70
   192
  0
VERTEX
  8
11TYP02-KEY1
  5
9F1
 10
12.255
 20
9.872
 30
1.84
 70
   192
  0
VERTEX
  8
11TYP02-KEY1
  5
9F2
 10
12.197
 20
9.758
 30
2.29
 70
   192
  0
VERTEX
  8
11TYP02-KEY1
  5
9F3
 10
11.575
 20
9.872
 30
1.926
 70
   192
  0
VERTEX
  8
11TYP02-KEY1
  5
9F4
 10
11.575
 20
9.185
 30
1.926
 70
   192
  0
VERTEX
  8
11TYP02-KEY1
  5
9F5
 10
12.197
 20
10.443
 30
2.29
 70
   192
  0
VERTEX
  8
11TYP02-KEY1
  5
9F6
 10
12.197
 20
11.129
 30
2.29
 70
   192
  0
VERTEX
  8
11TYP02-KEY1
  5
9F7
 10
11.575
 20
10.558
 30
1.926
 70
   192
  0
VERTEX
  8
11TYP02-KEY1
  5
9F8
 10
12.878
 20
5.739
 30
2.204
 70
   192
  0
VERTEX
  8
11TYP02-KEY1
  5
9F9
 10
12.878
 20
10.34
 30
2.204
 70
   192
  0
VERTEX
  8
11TYP02-KEY1
  5
9FA
 10
12.424
 20
5.739
 30
2.261
 70
   192
  0
VERTEX
  8
11TYP02-KEY1
  5
9FB
 10
10.837
 20
3.927
 30
2.462
 70
   192
  0
VERTEX
  8
11TYP02-KEY1
  5
9FC
 10
10.837
 20
3.127
 30
2.462
 70
   192
  0
VERTEX
  8
11TYP02-KEY1
  5
9FD
 10
10.383
 20
3.127
 30
2.519
 70
   192
  0
VERTEX
  8
11TYP02-KEY1
  5
9FE
 10
10.383
 20
3.927
 30
2.519
 70
   192
  0
VERTEX
  8
11TYP02-KEY1
  5
9FF
 10
10.894
 20
3.013
 30
2.012
 70
   192
  0
VERTEX
  8
11TYP02-KEY1
  5
A00
 10
12.937
 20
10.455
 30
1.754
 70
   192
  0
VERTEX
  8
11TYP02-KEY1
  5
A01
 10
12.937
 20
5.625
 30
1.754
 70
   192
  0
VERTEX
  8
11TYP02-KEY1
  5
A02
 10
12.255
 20
5.625
 30
1.84
 70
   192
  0
VERTEX
  8
11TYP02-KEY1
  5
A03
 10
12.424
 20
10.34
 30
2.261
 70
   192
  0
VERTEX
  8
11TYP02-KEY1
  5
A04
 10
12.255
 20
10.455
 30
1.84
 70
   192
  0
VERTEX
  8
11TYP02-KEY1
  5
A05
 10
12.255
 20
10.558
 30
1.84
 70
   192
  0
VERTEX
  8
11TYP02-KEY1
  5
A06
 10
12.255
 20
11.243
 30
1.84
 70
   192
  0
VERTEX
  8
11TYP02-KEY1
  5
A07
 10
11.575
 20
11.243
 30
1.926
 70
   192
  0
VERTEX
  8
11TYP02-KEY1
  5
A08
 10
12.197
 20
10.672
 30
2.29
 70
   192
  0
VERTEX
  8
11TYP02-KEY1
  5
A09
 10
11.744
 20
11.129
 30
2.347
 70
   192
  0
VERTEX
  8
11TYP02-KEY1
  5
A0A
 10
11.744
 20
10.672
 30
2.347
 70
   192
  0
VERTEX
  8
11TYP02-KEY1
  5
A0B
 10
11.744
 20
10.443
 30
2.347
 70
   192
  0
VERTEX
  8
11TYP02-KEY1
  5
A0C
 10
11.744
 20
9.986
 30
2.347
 70
   192
  0
VERTEX
  8
11TYP02-KEY1
  5
A0D
 10
12.197
 20
9.986
 30
2.29
 70
   192
  0
VERTEX
  8
11TYP02-KEY1
  5
A0E
 10
12.255
 20
9.185
 30
1.84
 70
   192
  0
VERTEX
  8
11TYP02-KEY1
  5
A0F
 10
11.744
 20
9.758
 30
2.347
 70
   192
  0
VERTEX
  8
11TYP02-KEY1
  5
A10
 10
11.744
 20
9.301
 30
2.347
 70
   192
  0
VERTEX
  8
11TYP02-KEY1
  5
A11
 10
12.197
 20
9.301
 30
2.29
 70
   192
  0
VERTEX
  8
11TYP02-KEY1
  5
A12
 10
11.744
 20
8.614
 30
2.347
 70
   192
  0
VERTEX
  8
11TYP02-KEY1
  5
A13
 10
11.575
 20
8.5
 30
1.926
 70
   192
  0
VERTEX
  8
11TYP02-KEY1
  5
A14
 10
11.575
 20
7.814
 30
1.926
 70
   192
  0
VERTEX
  8
11TYP02-KEY1
  5
A15
 10
11.744
 20
7.929
 30
2.347
 70
   192
  0
VERTEX
  8
11TYP02-KEY1
  5
A16
 10
12.197
 20
7.929
 30
2.29
 70
   192
  0
VERTEX
  8
11TYP02-KEY1
  5
A17
 10
12.197
 20
7.243
 30
2.29
 70
   192
  0
VERTEX
  8
11TYP02-KEY1
  5
A18
 10
12.255
 20
6.442
 30
1.84
 70
   192
  0
VERTEX
  8
11TYP02-KEY1
  5
A19
 10
12.197
 20
7.013
 30
2.29
 70
   192
  0
VERTEX
  8
11TYP02-KEY1
  5
A1A
 10
11.744
 20
6.556
 30
2.347
 70
   192
  0
VERTEX
  8
11TYP02-KEY1
  5
A1B
 10
12.255
 20
5.756
 30
1.84
 70
   192
  0
VERTEX
  8
11TYP02-KEY1
  5
A1C
 10
12.197
 20
5.871
 30
2.29
 70
   192
  0
VERTEX
  8
11TYP02-KEY1
  5
A1D
 10
11.744
 20
6.328
 30
2.347
 70
   192
  0
VERTEX
  8
11TYP02-KEY1
  5
A1E
 10
12.197
 20
5.185
 30
2.29
 70
   192
  0
VERTEX
  8
11TYP02-KEY1
  5
A1F
 10
12.197
 20
5.642
 30
2.29
 70
   192
  0
VERTEX
  8
11TYP02-KEY1
  5
A20
 10
11.744
 20
4.499
 30
2.347
 70
   192
  0
VERTEX
  8
11TYP02-KEY1
  5
A21
 10
10.214
 20
3.699
 30
2.098
 70
   192
  0
VERTEX
  8
11TYP02-KEY1
  5
A22
 10
9.533
 20
3.699
 30
2.184
 70
   192
  0
VERTEX
  8
11TYP02-KEY1
  5
A23
 10
10.214
 20
3.013
 30
2.098
 70
   192
  0
VERTEX
  8
11TYP02-KEY1
  5
A24
 10
9.701
 20
3.584
 30
2.605
 70
   192
  0
VERTEX
  8
11TYP02-KEY1
  5
A25
 10
11.575
 20
11.072
 30
1.926
 70
   192
  0
VERTEX
  8
11TYP02-KEY1
  5
A26
 10
11.517
 20
11.644
 30
2.376
 70
   192
  0
VERTEX
  8
11TYP02-KEY1
  5
A27
 10
11.063
 20
11.644
 30
2.434
 70
   192
  0
VERTEX
  8
11TYP02-KEY1
  5
A28
 10
10.894
 20
11.072
 30
2.012
 70
   192
  0
VERTEX
  8
11TYP02-KEY1
  5
A29
 10
11.063
 20
10.958
 30
2.434
 70
   192
  0
VERTEX
  8
11TYP02-KEY1
  5
A2A
 10
11.063
 20
10.501
 30
2.434
 70
   192
  0
VERTEX
  8
11TYP02-KEY1
  5
A2B
 10
11.575
 20
10.387
 30
1.926
 70
   192
  0
VERTEX
  8
11TYP02-KEY1
  5
A2C
 10
11.517
 20
9.814
 30
2.376
 70
   192
  0
VERTEX
  8
11TYP02-KEY1
  5
A2D
 10
10.894
 20
9.7
 30
2.012
 70
   192
  0
VERTEX
  8
11TYP02-KEY1
  5
A2E
 10
11.575
 20
9.015
 30
1.926
 70
   192
  0
VERTEX
  8
11TYP02-KEY1
  5
A2F
 10
11.517
 20
9.586
 30
2.376
 70
   192
  0
VERTEX
  8
11TYP02-KEY1
  5
A30
 10
11.517
 20
9.129
 30
2.376
 70
   192
  0
VERTEX
  8
11TYP02-KEY1
  5
A31
 10
11.575
 20
8.329
 30
1.926
 70
   192
  0
VERTEX
  8
11TYP02-KEY1
  5
A32
 10
11.063
 20
8.443
 30
2.434
 70
   192
  0
VERTEX
  8
11TYP02-KEY1
  5
A33
 10
11.517
 20
7.757
 30
2.376
 70
   192
  0
VERTEX
  8
11TYP02-KEY1
  5
A34
 10
11.517
 20
8.215
 30
2.376
 70
   192
  0
VERTEX
  8
11TYP02-KEY1
  5
A35
 10
11.063
 20
8.215
 30
2.434
 70
   192
  0
VERTEX
  8
11TYP02-KEY1
  5
A36
 10
11.575
 20
6.957
 30
1.926
 70
   192
  0
VERTEX
  8
11TYP02-KEY1
  5
A37
 10
10.894
 20
7.642
 30
2.012
 70
   192
  0
VERTEX
  8
11TYP02-KEY1
  5
A38
 10
11.517
 20
7.071
 30
2.376
 70
   192
  0
VERTEX
  8
11TYP02-KEY1
  5
A39
 10
11.063
 20
6.843
 30
2.434
 70
   192
  0
VERTEX
  8
11TYP02-KEY1
  5
A3A
 10
11.517
 20
6.385
 30
2.376
 70
   192
  0
VERTEX
  8
11TYP02-KEY1
  5
A3B
 10
11.575
 20
6.271
 30
1.926
 70
   192
  0
VERTEX
  8
11TYP02-KEY1
  5
A3C
 10
11.517
 20
6.157
 30
2.376
 70
   192
  0
VERTEX
  8
11TYP02-KEY1
  5
A3D
 10
11.517
 20
5.699
 30
2.376
 70
   192
  0
VERTEX
  8
11TYP02-KEY1
  5
A3E
 10
11.575
 20
5.585
 30
1.926
 70
   192
  0
VERTEX
  8
11TYP02-KEY1
  5
A3F
 10
11.517
 20
5.013
 30
2.376
 70
   192
  0
VERTEX
  8
11TYP02-KEY1
  5
A40
 10
11.063
 20
5.47
 30
2.434
 70
   192
  0
VERTEX
  8
11TYP02-KEY1
  5
A41
 10
10.894
 20
4.213
 30
2.012
 70
   192
  0
VERTEX
  8
11TYP02-KEY1
  5
A42
 10
11.517
 20
4.328
 30
2.376
 70
   192
  0
VERTEX
  8
11TYP02-KEY1
  5
A43
 10
10.214
 20
12.273
 30
2.098
 70
   192
  0
VERTEX
  8
11TYP02-KEY1
  5
A44
 10
10.837
 20
11.701
 30
2.462
 70
   192
  0
VERTEX
  8
11TYP02-KEY1
  5
A45
 10
10.837
 20
12.158
 30
2.462
 70
   192
  0
VERTEX
  8
11TYP02-KEY1
  5
A46
 10
10.837
 20
11.015
 30
2.462
 70
   192
  0
VERTEX
  8
11TYP02-KEY1
  5
A47
 10
10.837
 20
10.786
 30
2.462
 70
   192
  0
VERTEX
  8
11TYP02-KEY1
  5
A48
 10
10.383
 20
10.329
 30
2.519
 70
   192
  0
VERTEX
  8
11TYP02-KEY1
  5
A49
 10
10.894
 20
9.529
 30
2.012
 70
   192
  0
VERTEX
  8
11TYP02-KEY1
  5
A4A
 10
10.214
 20
10.215
 30
2.098
 70
   192
  0
VERTEX
  8
11TYP02-KEY1
  5
A4B
 10
10.837
 20
9.644
 30
2.462
 70
   192
  0
VERTEX
  8
11TYP02-KEY1
  5
A4C
 10
10.383
 20
10.101
 30
2.519
 70
   192
  0
VERTEX
  8
11TYP02-KEY1
  5
A4D
 10
10.894
 20
8.843
 30
2.012
 70
   192
  0
VERTEX
  8
11TYP02-KEY1
  5
A4E
 10
10.837
 20
8.957
 30
2.462
 70
   192
  0
VERTEX
  8
11TYP02-KEY1
  5
A4F
 10
10.894
 20
8.157
 30
2.012
 70
   192
  0
VERTEX
  8
11TYP02-KEY1
  5
A50
 10
10.837
 20
7.586
 30
2.462
 70
   192
  0
VERTEX
  8
11TYP02-KEY1
  5
A51
 10
10.894
 20
6.785
 30
2.012
 70
   192
  0
VERTEX
  8
11TYP02-KEY1
  5
A52
 10
10.894
 20
7.471
 30
2.012
 70
   192
  0
VERTEX
  8
11TYP02-KEY1
  5
A53
 10
10.214
 20
6.785
 30
2.098
 70
   192
  0
VERTEX
  8
11TYP02-KEY1
  5
A54
 10
10.383
 20
6.899
 30
2.519
 70
   192
  0
VERTEX
  8
11TYP02-KEY1
  5
A55
 10
10.837
 20
6.899
 30
2.462
 70
   192
  0
VERTEX
  8
11TYP02-KEY1
  5
A56
 10
10.383
 20
6.671
 30
2.519
 70
   192
  0
VERTEX
  8
11TYP02-KEY1
  5
A57
 10
10.837
 20
6.214
 30
2.462
 70
   192
  0
VERTEX
  8
11TYP02-KEY1
  5
A58
 10
10.214
 20
4.041
 30
2.098
 70
   192
  0
VERTEX
  8
11TYP02-KEY1
  5
A59
 10
10.383
 20
4.613
 30
2.519
 70
   192
  0
VERTEX
  8
11TYP02-KEY1
  5
A5A
 10
10.837
 20
4.156
 30
2.462
 70
   192
  0
VERTEX
  8
11TYP02-KEY1
  5
A5B
 10
10.214
 20
11.93
 30
2.098
 70
   192
  0
VERTEX
  8
11TYP02-KEY1
  5
A5C
 10
9.701
 20
11.816
 30
2.605
 70
   192
  0
VERTEX
  8
11TYP02-KEY1
  5
A5D
 10
9.701
 20
11.359
 30
2.605
 70
   192
  0
VERTEX
  8
11TYP02-KEY1
  5
A5E
 10
10.155
 20
10.672
 30
2.548
 70
   192
  0
VERTEX
  8
11TYP02-KEY1
  5
A5F
 10
9.701
 20
10.443
 30
2.605
 70
   192
  0
VERTEX
  8
11TYP02-KEY1
  5
A60
 10
10.155
 20
9.986
 30
2.548
 70
   192
  0
VERTEX
  8
11TYP02-KEY1
  5
A61
 10
10.155
 20
9.301
 30
2.548
 70
   192
  0
VERTEX
  8
11TYP02-KEY1
  5
A62
 10
9.701
 20
9.071
 30
2.605
 70
   192
  0
VERTEX
  8
11TYP02-KEY1
  5
A63
 10
9.533
 20
8.5
 30
2.184
 70
   192
  0
VERTEX
  8
11TYP02-KEY1
  5
A64
 10
10.214
 20
7.814
 30
2.098
 70
   192
  0
VERTEX
  8
11TYP02-KEY1
  5
A65
 10
10.155
 20
7.929
 30
2.548
 70
   192
  0
VERTEX
  8
11TYP02-KEY1
  5
A66
 10
10.214
 20
7.129
 30
2.098
 70
   192
  0
VERTEX
  8
11TYP02-KEY1
  5
A67
 10
10.155
 20
7.243
 30
2.548
 70
   192
  0
VERTEX
  8
11TYP02-KEY1
  5
A68
 10
9.701
 20
7.7
 30
2.605
 70
   192
  0
VERTEX
  8
11TYP02-KEY1
  5
A69
 10
10.155
 20
6.328
 30
2.548
 70
   192
  0
VERTEX
  8
11TYP02-KEY1
  5
A6A
 10
9.533
 20
5.756
 30
2.184
 70
   192
  0
VERTEX
  8
11TYP02-KEY1
  5
A6B
 10
10.155
 20
5.185
 30
2.548
 70
   192
  0
VERTEX
  8
11TYP02-KEY1
  5
A6C
 10
10.155
 20
5.642
 30
2.548
 70
   192
  0
VERTEX
  8
11TYP02-KEY1
  5
A6D
 10
9.701
 20
5.642
 30
2.605
 70
   192
  0
VERTEX
  8
11TYP02-KEY1
  5
A6E
 10
9.533
 20
4.384
 30
2.184
 70
   192
  0
VERTEX
  8
11TYP02-KEY1
  5
A6F
 10
10.155
 20
4.499
 30
2.548
 70
   192
  0
VERTEX
  8
11TYP02-KEY1
  5
A70
 10
10.214
 20
4.384
 30
2.098
 70
   192
  0
VERTEX
  8
11TYP02-KEY1
  5
A71
 10
9.701
 20
4.27
 30
2.605
 70
   192
  0
VERTEX
  8
11TYP02-KEY1
  5
A72
 10
10.155
 20
3.813
 30
2.548
 70
   192
  0
VERTEX
  8
11TYP02-KEY1
  5
A73
 10
0.0
 20
0.0
 30
0.0
 70
   128
 71
   295
 72
  -216
 73
     1
  0
VERTEX
  8
11TYP02-KEY1
  5
A74
 10
0.0
 20
0.0
 30
0.0
 70
   128
 71
   297
 72
    -1
 73
   216
  0
VERTEX
  8
11TYP02-KEY1
  5
A75
 10
0.0
 20
0.0
 30
0.0
 70
   128
 71
  -293
 72
     1
 73
   296
  0
VERTEX
  8
11TYP02-KEY1
  5
A76
 10
0.0
 20
0.0
 30
0.0
 70
   128
 71
     1
 72
   295
 73
  -293
  0
VERTEX
  8
11TYP02-KEY1
  5
A77
 10
0.0
 20
0.0
 30
0.0
 70
   128
 71
   217
 72
  -293
 73
     2
  0
VERTEX
  8
11TYP02-KEY1
  5
A78
 10
0.0
 20
0.0
 30
0.0
 70
   128
 71
   296
 72
    -2
 73
   293
  0
VERTEX
  8
11TYP02-KEY1
  5
A79
 10
0.0
 20
0.0
 30
0.0
 70
   128
 71
  -216
 72
     2
 73
   297
  0
VERTEX
  8
11TYP02-KEY1
  5
A7A
 10
0.0
 20
0.0
 30
0.0
 70
   128
 71
   217
 72
    -2
 73
   216
  0
VERTEX
  8
11TYP02-KEY1
  5
A7B
 10
0.0
 20
0.0
 30
0.0
 70
   128
 71
  -294
 72
     6
 73
     3
  0
VERTEX
  8
11TYP02-KEY1
  5
A7C
 10
0.0
 20
0.0
 30
0.0
 70
   128
 71
   294
 72
   295
 73
    -6
  0
VERTEX
  8
11TYP02-KEY1
  5
A7D
 10
0.0
 20
0.0
 30
0.0
 70
   128
 71
    -3
 72
     8
 73
     4
  0
VERTEX
  8
11TYP02-KEY1
  5
A7E
 10
0.0
 20
0.0
 30
0.0
 70
   128
 71
     3
 72
     6
 73
    -8
  0
VERTEX
  8
11TYP02-KEY1
  5
A7F
 10
0.0
 20
0.0
 30
0.0
 70
   128
 71
    -4
 72
   293
 73
     5
  0
VERTEX
  8
11TYP02-KEY1
  5
A80
 10
0.0
 20
0.0
 30
0.0
 70
   128
 71
     4
 72
     8
 73
  -293
  0
VERTEX
  8
11TYP02-KEY1
  5
A81
 10
0.0
 20
0.0
 30
0.0
 70
   128
 71
    -5
 72
   295
 73
   294
  0
VERTEX
  8
11TYP02-KEY1
  5
A82
 10
0.0
 20
0.0
 30
0.0
 70
   128
 71
     5
 72
   293
 73
  -295
  0
VERTEX
  8
11TYP02-KEY1
  5
A83
 10
0.0
 20
0.0
 30
0.0
 70
   128
 71
    10
 72
    -6
 73
   291
  0
VERTEX
  8
11TYP02-KEY1
  5
A84
 10
0.0
 20
0.0
 30
0.0
 70
   128
 71
   290
 72
  -291
 73
     6
  0
VERTEX
  8
11TYP02-KEY1
  5
A85
 10
0.0
 20
0.0
 30
0.0
 70
   128
 71
  -289
 72
   291
 73
   292
  0
VERTEX
  8
11TYP02-KEY1
  5
A86
 10
0.0
 20
0.0
 30
0.0
 70
   128
 71
   291
 72
    10
 73
  -289
  0
VERTEX
  8
11TYP02-KEY1
  5
A87
 10
0.0
 20
0.0
 30
0.0
 70
   128
 71
     8
 72
  -289
 73
     7
  0
VERTEX
  8
11TYP02-KEY1
  5
A88
 10
0.0
 20
0.0
 30
0.0
 70
   128
 71
   292
 72
    -7
 73
   289
  0
VERTEX
  8
11TYP02-KEY1
  5
A89
 10
0.0
 20
0.0
 30
0.0
 70
   128
 71
    -6
 72
     7
 73
   290
  0
VERTEX
  8
11TYP02-KEY1
  5
A8A
 10
0.0
 20
0.0
 30
0.0
 70
   128
 71
     8
 72
    -7
 73
     6
  0
VERTEX
  8
11TYP02-KEY1
  5
A8B
 10
0.0
 20
0.0
 30
0.0
 70
   128
 71
   -19
 72
     9
 73
   288
  0
VERTEX
  8
11TYP02-KEY1
  5
A8C
 10
0.0
 20
0.0
 30
0.0
 70
   128
 71
    10
 72
    -9
 73
    19
  0
VERTEX
  8
11TYP02-KEY1
  5
A8D
 10
0.0
 20
0.0
 30
0.0
 70
   128
 71
   -17
 72
   288
 73
    11
  0
VERTEX
  8
11TYP02-KEY1
  5
A8E
 10
0.0
 20
0.0
 30
0.0
 70
   128
 71
   288
 72
    19
 73
   -17
  0
VERTEX
  8
11TYP02-KEY1
  5
A8F
 10
0.0
 20
0.0
 30
0.0
 70
   128
 71
  -289
 72
    11
 73
    12
  0
VERTEX
  8
11TYP02-KEY1
  5
A90
 10
0.0
 20
0.0
 30
0.0
 70
   128
 71
    17
 72
   -11
 73
   289
  0
VERTEX
  8
11TYP02-KEY1
  5
A91
 10
0.0
 20
0.0
 30
0.0
 70
   128
 71
   -10
 72
    12
 73
     9
  0
VERTEX
  8
11TYP02-KEY1
  5
A92
 10
0.0
 20
0.0
 30
0.0
 70
   128
 71
   289
 72
   -12
 73
    10
  0
VERTEX
  8
11TYP02-KEY1
  5
A93
 10
0.0
 20
0.0
 30
0.0
 70
   128
 71
  -285
 72
    13
 73
    16
  0
VERTEX
  8
11TYP02-KEY1
  5
A94
 10
0.0
 20
0.0
 30
0.0
 70
   128
 71
    19
 72
   -13
 73
   285
  0
VERTEX
  8
11TYP02-KEY1
  5
A95
 10
0.0
 20
0.0
 30
0.0
 70
   128
 71
   -15
 72
    16
 73
    14
  0
VERTEX
  8
11TYP02-KEY1
  5
A96
 10
0.0
 20
0.0
 30
0.0
 70
   128
 71
    16
 72
   285
 73
   -15
  0
VERTEX
  8
11TYP02-KEY1
  5
A97
 10
0.0
 20
0.0
 30
0.0
 70
   128
 71
    17
 72
   -15
 73
    18
  0
VERTEX
  8
11TYP02-KEY1
  5
A98
 10
0.0
 20
0.0
 30
0.0
 70
   128
 71
    14
 72
   -18
 73
    15
  0
VERTEX
  8
11TYP02-KEY1
  5
A99
 10
0.0
 20
0.0
 30
0.0
 70
   128
 71
   -19
 72
    18
 73
    13
  0
VERTEX
  8
11TYP02-KEY1
  5
A9A
 10
0.0
 20
0.0
 30
0.0
 70
   128
 71
    17
 72
   -18
 73
    19
  0
VERTEX
  8
11TYP02-KEY1
  5
A9B
 10
0.0
 20
0.0
 30
0.0
 70
   128
 71
   283
 72
  -285
 73
    20
  0
VERTEX
  8
11TYP02-KEY1
  5
A9C
 10
0.0
 20
0.0
 30
0.0
 70
   128
 71
   286
 72
   -20
 73
   285
  0
VERTEX
  8
11TYP02-KEY1
  5
A9D
 10
0.0
 20
0.0
 30
0.0
 70
   128
 71
   -25
 72
    20
 73
   287
  0
VERTEX
  8
11TYP02-KEY1
  5
A9E
 10
0.0
 20
0.0
 30
0.0
 70
   128
 71
    20
 72
   283
 73
   -25
  0
VERTEX
  8
11TYP02-KEY1
  5
A9F
 10
0.0
 20
0.0
 30
0.0
 70
   128
 71
    15
 72
   -25
 73
    21
  0
VERTEX
  8
11TYP02-KEY1
  5
AA0
 10
0.0
 20
0.0
 30
0.0
 70
   128
 71
   287
 72
   -21
 73
    25
  0
VERTEX
  8
11TYP02-KEY1
  5
AA1
 10
0.0
 20
0.0
 30
0.0
 70
   128
 71
  -285
 72
    21
 73
   286
  0
VERTEX
  8
11TYP02-KEY1
  5
AA2
 10
0.0
 20
0.0
 30
0.0
 70
   128
 71
    15
 72
   -21
 73
   285
  0
VERTEX
  8
11TYP02-KEY1
  5
AA3
 10
0.0
 20
0.0
 30
0.0
 70
   128
 71
  -284
 72
    31
 73
    22
  0
VERTEX
  8
11TYP02-KEY1
  5
AA4
 10
0.0
 20
0.0
 30
0.0
 70
   128
 71
   284
 72
   283
 73
   -31
  0
VERTEX
  8
11TYP02-KEY1
  5
AA5
 10
0.0
 20
0.0
 30
0.0
 70
   128
 71
   -22
 72
   282
 73
    23
  0
VERTEX
  8
11TYP02-KEY1
  5
AA6
 10
0.0
 20
0.0
 30
0.0
 70
   128
 71
    22
 72
    31
 73
  -282
  0
VERTEX
  8
11TYP02-KEY1
  5
AA7
 10
0.0
 20
0.0
 30
0.0
 70
   128
 71
   -23
 72
    25
 73
    24
  0
VERTEX
  8
11TYP02-KEY1
  5
AA8
 10
0.0
 20
0.0
 30
0.0
 70
   128
 71
    23
 72
   282
 73
   -25
  0
VERTEX
  8
11TYP02-KEY1
  5
AA9
 10
0.0
 20
0.0
 30
0.0
 70
   128
 71
   -24
 72
   283
 73
   284
  0
VERTEX
  8
11TYP02-KEY1
  5
AAA
 10
0.0
 20
0.0
 30
0.0
 70
   128
 71
    24
 72
    25
 73
  -283
  0
VERTEX
  8
11TYP02-KEY1
  5
AAB
 10
0.0
 20
0.0
 30
0.0
 70
   128
 71
    27
 72
   -31
 73
    26
  0
VERTEX
  8
11TYP02-KEY1
  5
AAC
 10
0.0
 20
0.0
 30
0.0
 70
   128
 71
    28
 72
   -26
 73
    31
  0
VERTEX
  8
11TYP02-KEY1
  5
AAD
 10
0.0
 20
0.0
 30
0.0
 70
   128
 71
   -29
 72
    26
 73
   281
  0
VERTEX
  8
11TYP02-KEY1
  5
AAE
 10
0.0
 20
0.0
 30
0.0
 70
   128
 71
    26
 72
    27
 73
   -29
  0
VERTEX
  8
11TYP02-KEY1
  5
AAF
 10
0.0
 20
0.0
 30
0.0
 70
   128
 71
   282
 72
   -29
 73
    30
  0
VERTEX
  8
11TYP02-KEY1
  5
AB0
 10
0.0
 20
0.0
 30
0.0
 70
   128
 71
   281
 72
   -30
 73
    29
  0
VERTEX
  8
11TYP02-KEY1
  5
AB1
 10
0.0
 20
0.0
 30
0.0
 70
   128
 71
   -31
 72
    30
 73
    28
  0
VERTEX
  8
11TYP02-KEY1
  5
AB2
 10
0.0
 20
0.0
 30
0.0
 70
   128
 71
   282
 72
   -30
 73
    31
  0
VERTEX
  8
11TYP02-KEY1
  5
AB3
 10
0.0
 20
0.0
 30
0.0
 70
   128
 71
   -33
 72
   280
 73
    34
  0
VERTEX
  8
11TYP02-KEY1
  5
AB4
 10
0.0
 20
0.0
 30
0.0
 70
   128
 71
    27
 72
  -280
 73
    33
  0
VERTEX
  8
11TYP02-KEY1
  5
AB5
 10
0.0
 20
0.0
 30
0.0
 70
   128
 71
   -35
 72
    34
 73
    32
  0
VERTEX
  8
11TYP02-KEY1
  5
AB6
 10
0.0
 20
0.0
 30
0.0
 70
   128
 71
    34
 72
    33
 73
   -35
  0
VERTEX
  8
11TYP02-KEY1
  5
AB7
 10
0.0
 20
0.0
 30
0.0
 70
   128
 71
    29
 72
   -35
 73
    36
  0
VERTEX
  8
11TYP02-KEY1
  5
AB8
 10
0.0
 20
0.0
 30
0.0
 70
   128
 71
    32
 72
   -36
 73
    35
  0
VERTEX
  8
11TYP02-KEY1
  5
AB9
 10
0.0
 20
0.0
 30
0.0
 70
   128
 71
   -27
 72
    36
 73
   280
  0
VERTEX
  8
11TYP02-KEY1
  5
ABA
 10
0.0
 20
0.0
 30
0.0
 70
   128
 71
    29
 72
   -36
 73
    27
  0
VERTEX
  8
11TYP02-KEY1
  5
ABB
 10
0.0
 20
0.0
 30
0.0
 70
   128
 71
    33
 72
    38
 73
   -37
  0
VERTEX
  8
11TYP02-KEY1
  5
ABC
 10
0.0
 20
0.0
 30
0.0
 70
   128
 71
    37
 72
   279
 73
   -33
  0
VERTEX
  8
11TYP02-KEY1
  5
ABD
 10
0.0
 20
0.0
 30
0.0
 70
   128
 71
  -278
 72
    38
 73
    45
  0
VERTEX
  8
11TYP02-KEY1
  5
ABE
 10
0.0
 20
0.0
 30
0.0
 70
   128
 71
   278
 72
    37
 73
   -38
  0
VERTEX
  8
11TYP02-KEY1
  5
ABF
 10
0.0
 20
0.0
 30
0.0
 70
   128
 71
  -278
 72
    35
 73
    39
  0
VERTEX
  8
11TYP02-KEY1
  5
AC0
 10
0.0
 20
0.0
 30
0.0
 70
   128
 71
   278
 72
    45
 73
   -35
  0
VERTEX
  8
11TYP02-KEY1
  5
AC1
 10
0.0
 20
0.0
 30
0.0
 70
   128
 71
   -39
 72
    33
 73
   279
  0
VERTEX
  8
11TYP02-KEY1
  5
AC2
 10
0.0
 20
0.0
 30
0.0
 70
   128
 71
    39
 72
    35
 73
   -33
  0
VERTEX
  8
11TYP02-KEY1
  5
AC3
 10
0.0
 20
0.0
 30
0.0
 70
   128
 71
    40
 72
   -38
 73
    42
  0
VERTEX
  8
11TYP02-KEY1
  5
AC4
 10
0.0
 20
0.0
 30
0.0
 70
   128
 71
   277
 72
   -42
 73
    38
  0
VERTEX
  8
11TYP02-KEY1
  5
AC5
 10
0.0
 20
0.0
 30
0.0
 70
   128
 71
   -43
 72
    42
 73
    41
  0
VERTEX
  8
11TYP02-KEY1
  5
AC6
 10
0.0
 20
0.0
 30
0.0
 70
   128
 71
    42
 72
    40
 73
   -43
  0
VERTEX
  8
11TYP02-KEY1
  5
AC7
 10
0.0
 20
0.0
 30
0.0
 70
   128
 71
    45
 72
   -43
 73
    44
  0
VERTEX
  8
11TYP02-KEY1
  5
AC8
 10
0.0
 20
0.0
 30
0.0
 70
   128
 71
    41
 72
   -44
 73
    43
  0
VERTEX
  8
11TYP02-KEY1
  5
AC9
 10
0.0
 20
0.0
 30
0.0
 70
   128
 71
   -38
 72
    44
 73
   277
  0
VERTEX
  8
11TYP02-KEY1
  5
ACA
 10
0.0
 20
0.0
 30
0.0
 70
   128
 71
    45
 72
   -44
 73
    38
  0
VERTEX
  8
11TYP02-KEY1
  5
ACB
 10
0.0
 20
0.0
 30
0.0
 70
   128
 71
   -47
 72
   274
 73
    46
  0
VERTEX
  8
11TYP02-KEY1
  5
ACC
 10
0.0
 20
0.0
 30
0.0
 70
   128
 71
    47
 72
    40
 73
  -274
  0
VERTEX
  8
11TYP02-KEY1
  5
ACD
 10
0.0
 20
0.0
 30
0.0
 70
   128
 71
   -46
 72
    48
 73
   275
  0
VERTEX
  8
11TYP02-KEY1
  5
ACE
 10
0.0
 20
0.0
 30
0.0
 70
   128
 71
    46
 72
   274
 73
   -48
  0
VERTEX
  8
11TYP02-KEY1
  5
ACF
 10
0.0
 20
0.0
 30
0.0
 70
   128
 71
    48
 72
    43
 73
  -276
  0
VERTEX
  8
11TYP02-KEY1
  5
AD0
 10
0.0
 20
0.0
 30
0.0
 70
   128
 71
   276
 72
   275
 73
   -48
  0
VERTEX
  8
11TYP02-KEY1
  5
AD1
 10
0.0
 20
0.0
 30
0.0
 70
   128
 71
  -276
 72
    40
 73
    47
  0
VERTEX
  8
11TYP02-KEY1
  5
AD2
 10
0.0
 20
0.0
 30
0.0
 70
   128
 71
   276
 72
    43
 73
   -40
  0
VERTEX
  8
11TYP02-KEY1
  5
AD3
 10
0.0
 20
0.0
 30
0.0
 70
   128
 71
  -273
 72
    53
 73
    49
  0
VERTEX
  8
11TYP02-KEY1
  5
AD4
 10
0.0
 20
0.0
 30
0.0
 70
   128
 71
   273
 72
    50
 73
   -53
  0
VERTEX
  8
11TYP02-KEY1
  5
AD5
 10
0.0
 20
0.0
 30
0.0
 70
   128
 71
  -272
 72
    53
 73
    56
  0
VERTEX
  8
11TYP02-KEY1
  5
AD6
 10
0.0
 20
0.0
 30
0.0
 70
   128
 71
   272
 72
    49
 73
   -53
  0
VERTEX
  8
11TYP02-KEY1
  5
AD7
 10
0.0
 20
0.0
 30
0.0
 70
   128
 71
  -272
 72
   271
 73
    51
  0
VERTEX
  8
11TYP02-KEY1
  5
AD8
 10
0.0
 20
0.0
 30
0.0
 70
   128
 71
   272
 72
    56
 73
  -271
  0
VERTEX
  8
11TYP02-KEY1
  5
AD9
 10
0.0
 20
0.0
 30
0.0
 70
   128
 71
   -51
 72
    50
 73
   273
  0
VERTEX
  8
11TYP02-KEY1
  5
ADA
 10
0.0
 20
0.0
 30
0.0
 70
   128
 71
    51
 72
   271
 73
   -50
  0
VERTEX
  8
11TYP02-KEY1
  5
ADB
 10
0.0
 20
0.0
 30
0.0
 70
   128
 71
   -64
 72
    57
 73
    52
  0
VERTEX
  8
11TYP02-KEY1
  5
ADC
 10
0.0
 20
0.0
 30
0.0
 70
   128
 71
    53
 72
   -57
 73
    64
  0
VERTEX
  8
11TYP02-KEY1
  5
ADD
 10
0.0
 20
0.0
 30
0.0
 70
   128
 71
   -54
 72
    64
 73
    63
  0
VERTEX
  8
11TYP02-KEY1
  5
ADE
 10
0.0
 20
0.0
 30
0.0
 70
   128
 71
    52
 72
   -54
 73
    64
  0
VERTEX
  8
11TYP02-KEY1
  5
ADF
 10
0.0
 20
0.0
 30
0.0
 70
   128
 71
   -56
 72
    54
 73
    55
  0
VERTEX
  8
11TYP02-KEY1
  5
AE0
 10
0.0
 20
0.0
 30
0.0
 70
   128
 71
    63
 72
   -54
 73
    56
  0
VERTEX
  8
11TYP02-KEY1
  5
AE1
 10
0.0
 20
0.0
 30
0.0
 70
   128
 71
   -53
 72
    55
 73
    57
  0
VERTEX
  8
11TYP02-KEY1
  5
AE2
 10
0.0
 20
0.0
 30
0.0
 70
   128
 71
    56
 72
   -55
 73
    53
  0
VERTEX
  8
11TYP02-KEY1
  5
AE3
 10
0.0
 20
0.0
 30
0.0
 70
   128
 71
   -59
 72
    60
 73
    58
  0
VERTEX
  8
11TYP02-KEY1
  5
AE4
 10
0.0
 20
0.0
 30
0.0
 70
   128
 71
    64
 72
   -60
 73
    59
  0
VERTEX
  8
11TYP02-KEY1
  5
AE5
 10
0.0
 20
0.0
 30
0.0
 70
   128
 71
   -62
 72
    59
 73
    66
  0
VERTEX
  8
11TYP02-KEY1
  5
AE6
 10
0.0
 20
0.0
 30
0.0
 70
   128
 71
    58
 72
   -62
 73
    59
  0
VERTEX
  8
11TYP02-KEY1
  5
AE7
 10
0.0
 20
0.0
 30
0.0
 70
   128
 71
   -63
 72
    62
 73
    61
  0
VERTEX
  8
11TYP02-KEY1
  5
AE8
 10
0.0
 20
0.0
 30
0.0
 70
   128
 71
    66
 72
   -62
 73
    63
  0
VERTEX
  8
11TYP02-KEY1
  5
AE9
 10
0.0
 20
0.0
 30
0.0
 70
   128
 71
   -64
 72
    61
 73
    60
  0
VERTEX
  8
11TYP02-KEY1
  5
AEA
 10
0.0
 20
0.0
 30
0.0
 70
   128
 71
    63
 72
   -61
 73
    64
  0
VERTEX
  8
11TYP02-KEY1
  5
AEB
 10
0.0
 20
0.0
 30
0.0
 70
   128
 71
  -270
 72
   264
 73
    65
  0
VERTEX
  8
11TYP02-KEY1
  5
AEC
 10
0.0
 20
0.0
 30
0.0
 70
   128
 71
   270
 72
    59
 73
  -264
  0
VERTEX
  8
11TYP02-KEY1
  5
AED
 10
0.0
 20
0.0
 30
0.0
 70
   128
 71
  -269
 72
   264
 73
   266
  0
VERTEX
  8
11TYP02-KEY1
  5
AEE
 10
0.0
 20
0.0
 30
0.0
 70
   128
 71
   269
 72
    65
 73
  -264
  0
VERTEX
  8
11TYP02-KEY1
  5
AEF
 10
0.0
 20
0.0
 30
0.0
 70
   128
 71
  -269
 72
    66
 73
    67
  0
VERTEX
  8
11TYP02-KEY1
  5
AF0
 10
0.0
 20
0.0
 30
0.0
 70
   128
 71
   269
 72
   266
 73
   -66
  0
VERTEX
  8
11TYP02-KEY1
  5
AF1
 10
0.0
 20
0.0
 30
0.0
 70
   128
 71
   -67
 72
    59
 73
   270
  0
VERTEX
  8
11TYP02-KEY1
  5
AF2
 10
0.0
 20
0.0
 30
0.0
 70
   128
 71
    67
 72
    66
 73
   -59
  0
VERTEX
  8
11TYP02-KEY1
  5
AF3
 10
0.0
 20
0.0
 30
0.0
 70
   128
 71
  -268
 72
   265
 73
    69
  0
VERTEX
  8
11TYP02-KEY1
  5
AF4
 10
0.0
 20
0.0
 30
0.0
 70
   128
 71
   268
 72
   264
 73
  -265
  0
VERTEX
  8
11TYP02-KEY1
  5
AF5
 10
0.0
 20
0.0
 30
0.0
 70
   128
 71
   -70
 72
   265
 73
    68
  0
VERTEX
  8
11TYP02-KEY1
  5
AF6
 10
0.0
 20
0.0
 30
0.0
 70
   128
 71
    70
 72
    69
 73
  -265
  0
VERTEX
  8
11TYP02-KEY1
  5
AF7
 10
0.0
 20
0.0
 30
0.0
 70
   128
 71
   -70
 72
   266
 73
   267
  0
VERTEX
  8
11TYP02-KEY1
  5
AF8
 10
0.0
 20
0.0
 30
0.0
 70
   128
 71
    70
 72
    68
 73
  -266
  0
VERTEX
  8
11TYP02-KEY1
  5
AF9
 10
0.0
 20
0.0
 30
0.0
 70
   128
 71
  -267
 72
   264
 73
   268
  0
VERTEX
  8
11TYP02-KEY1
  5
AFA
 10
0.0
 20
0.0
 30
0.0
 70
   128
 71
   267
 72
   266
 73
  -264
  0
VERTEX
  8
11TYP02-KEY1
  5
AFB
 10
0.0
 20
0.0
 30
0.0
 70
   128
 71
  -262
 72
   263
 73
    71
  0
VERTEX
  8
11TYP02-KEY1
  5
AFC
 10
0.0
 20
0.0
 30
0.0
 70
   128
 71
   265
 72
  -263
 73
   262
  0
VERTEX
  8
11TYP02-KEY1
  5
AFD
 10
0.0
 20
0.0
 30
0.0
 70
   128
 71
   -73
 72
   262
 73
    72
  0
VERTEX
  8
11TYP02-KEY1
  5
AFE
 10
0.0
 20
0.0
 30
0.0
 70
   128
 71
    71
 72
   -73
 73
   262
  0
VERTEX
  8
11TYP02-KEY1
  5
AFF
 10
0.0
 20
0.0
 30
0.0
 70
   128
 71
   -68
 72
    73
 73
    74
  0
VERTEX
  8
11TYP02-KEY1
  5
B00
 10
0.0
 20
0.0
 30
0.0
 70
   128
 71
    72
 72
   -73
 73
    68
  0
VERTEX
  8
11TYP02-KEY1
  5
B01
 10
0.0
 20
0.0
 30
0.0
 70
   128
 71
  -265
 72
    74
 73
   263
  0
VERTEX
  8
11TYP02-KEY1
  5
B02
 10
0.0
 20
0.0
 30
0.0
 70
   128
 71
    68
 72
   -74
 73
   265
  0
VERTEX
  8
11TYP02-KEY1
  5
B03
 10
0.0
 20
0.0
 30
0.0
 70
   128
 71
  -260
 72
    75
 73
    76
  0
VERTEX
  8
11TYP02-KEY1
  5
B04
 10
0.0
 20
0.0
 30
0.0
 70
   128
 71
   262
 72
   -75
 73
   260
  0
VERTEX
  8
11TYP02-KEY1
  5
B05
 10
0.0
 20
0.0
 30
0.0
 70
   128
 71
   -77
 72
   260
 73
    82
  0
VERTEX
  8
11TYP02-KEY1
  5
B06
 10
0.0
 20
0.0
 30
0.0
 70
   128
 71
    76
 72
   -77
 73
   260
  0
VERTEX
  8
11TYP02-KEY1
  5
B07
 10
0.0
 20
0.0
 30
0.0
 70
   128
 71
   -72
 72
    77
 73
    78
  0
VERTEX
  8
11TYP02-KEY1
  5
B08
 10
0.0
 20
0.0
 30
0.0
 70
   128
 71
    82
 72
   -77
 73
    72
  0
VERTEX
  8
11TYP02-KEY1
  5
B09
 10
0.0
 20
0.0
 30
0.0
 70
   128
 71
  -262
 72
    78
 73
    75
  0
VERTEX
  8
11TYP02-KEY1
  5
B0A
 10
0.0
 20
0.0
 30
0.0
 70
   128
 71
    72
 72
   -78
 73
   262
  0
VERTEX
  8
11TYP02-KEY1
  5
B0B
 10
0.0
 20
0.0
 30
0.0
 70
   128
 71
  -256
 72
   261
 73
    80
  0
VERTEX
  8
11TYP02-KEY1
  5
B0C
 10
0.0
 20
0.0
 30
0.0
 70
   128
 71
   260
 72
  -261
 73
   256
  0
VERTEX
  8
11TYP02-KEY1
  5
B0D
 10
0.0
 20
0.0
 30
0.0
 70
   128
 71
   -79
 72
   256
 73
    85
  0
VERTEX
  8
11TYP02-KEY1
  5
B0E
 10
0.0
 20
0.0
 30
0.0
 70
   128
 71
    80
 72
   -79
 73
   256
  0
VERTEX
  8
11TYP02-KEY1
  5
B0F
 10
0.0
 20
0.0
 30
0.0
 70
   128
 71
   -82
 72
    79
 73
    81
  0
VERTEX
  8
11TYP02-KEY1
  5
B10
 10
0.0
 20
0.0
 30
0.0
 70
   128
 71
    85
 72
   -79
 73
    82
  0
VERTEX
  8
11TYP02-KEY1
  5
B11
 10
0.0
 20
0.0
 30
0.0
 70
   128
 71
  -260
 72
    81
 73
   261
  0
VERTEX
  8
11TYP02-KEY1
  5
B12
 10
0.0
 20
0.0
 30
0.0
 70
   128
 71
    82
 72
   -81
 73
   260
  0
VERTEX
  8
11TYP02-KEY1
  5
B13
 10
0.0
 20
0.0
 30
0.0
 70
   128
 71
   -84
 72
   258
 73
    83
  0
VERTEX
  8
11TYP02-KEY1
  5
B14
 10
0.0
 20
0.0
 30
0.0
 70
   128
 71
   256
 72
  -258
 73
    84
  0
VERTEX
  8
11TYP02-KEY1
  5
B15
 10
0.0
 20
0.0
 30
0.0
 70
   128
 71
  -259
 72
    84
 73
   257
  0
VERTEX
  8
11TYP02-KEY1
  5
B16
 10
0.0
 20
0.0
 30
0.0
 70
   128
 71
    83
 72
  -259
 73
    84
  0
VERTEX
  8
11TYP02-KEY1
  5
B17
 10
0.0
 20
0.0
 30
0.0
 70
   128
 71
   -85
 72
   259
 73
    86
  0
VERTEX
  8
11TYP02-KEY1
  5
B18
 10
0.0
 20
0.0
 30
0.0
 70
   128
 71
   257
 72
  -259
 73
    85
  0
VERTEX
  8
11TYP02-KEY1
  5
B19
 10
0.0
 20
0.0
 30
0.0
 70
   128
 71
  -256
 72
    86
 73
   258
  0
VERTEX
  8
11TYP02-KEY1
  5
B1A
 10
0.0
 20
0.0
 30
0.0
 70
   128
 71
    85
 72
   -86
 73
   256
  0
VERTEX
  8
11TYP02-KEY1
  5
B1B
 10
0.0
 20
0.0
 30
0.0
 70
   128
 71
   -87
 72
    92
 73
   254
  0
VERTEX
  8
11TYP02-KEY1
  5
B1C
 10
0.0
 20
0.0
 30
0.0
 70
   128
 71
    87
 72
    84
 73
   -92
  0
VERTEX
  8
11TYP02-KEY1
  5
B1D
 10
0.0
 20
0.0
 30
0.0
 70
   128
 71
   -88
 72
    92
 73
    93
  0
VERTEX
  8
11TYP02-KEY1
  5
B1E
 10
0.0
 20
0.0
 30
0.0
 70
   128
 71
    88
 72
   254
 73
   -92
  0
VERTEX
  8
11TYP02-KEY1
  5
B1F
 10
0.0
 20
0.0
 30
0.0
 70
   128
 71
   -88
 72
   257
 73
   255
  0
VERTEX
  8
11TYP02-KEY1
  5
B20
 10
0.0
 20
0.0
 30
0.0
 70
   128
 71
    88
 72
    93
 73
  -257
  0
VERTEX
  8
11TYP02-KEY1
  5
B21
 10
0.0
 20
0.0
 30
0.0
 70
   128
 71
  -255
 72
    84
 73
    87
  0
VERTEX
  8
11TYP02-KEY1
  5
B22
 10
0.0
 20
0.0
 30
0.0
 70
   128
 71
   255
 72
   257
 73
   -84
  0
VERTEX
  8
11TYP02-KEY1
  5
B23
 10
0.0
 20
0.0
 30
0.0
 70
   128
 71
  -253
 72
    98
 73
    89
  0
VERTEX
  8
11TYP02-KEY1
  5
B24
 10
0.0
 20
0.0
 30
0.0
 70
   128
 71
   253
 72
    92
 73
   -98
  0
VERTEX
  8
11TYP02-KEY1
  5
B25
 10
0.0
 20
0.0
 30
0.0
 70
   128
 71
   -90
 72
    98
 73
    91
  0
VERTEX
  8
11TYP02-KEY1
  5
B26
 10
0.0
 20
0.0
 30
0.0
 70
   128
 71
    90
 72
    89
 73
   -98
  0
VERTEX
  8
11TYP02-KEY1
  5
B27
 10
0.0
 20
0.0
 30
0.0
 70
   128
 71
   -90
 72
    93
 73
    94
  0
VERTEX
  8
11TYP02-KEY1
  5
B28
 10
0.0
 20
0.0
 30
0.0
 70
   128
 71
    90
 72
    91
 73
   -93
  0
VERTEX
  8
11TYP02-KEY1
  5
B29
 10
0.0
 20
0.0
 30
0.0
 70
   128
 71
   -94
 72
    92
 73
   253
  0
VERTEX
  8
11TYP02-KEY1
  5
B2A
 10
0.0
 20
0.0
 30
0.0
 70
   128
 71
    94
 72
    93
 73
   -92
  0
VERTEX
  8
11TYP02-KEY1
  5
B2B
 10
0.0
 20
0.0
 30
0.0
 70
   128
 71
  -251
 72
    95
 73
   252
  0
VERTEX
  8
11TYP02-KEY1
  5
B2C
 10
0.0
 20
0.0
 30
0.0
 70
   128
 71
   251
 72
    98
 73
   -95
  0
VERTEX
  8
11TYP02-KEY1
  5
B2D
 10
0.0
 20
0.0
 30
0.0
 70
   128
 71
   -96
 72
    95
 73
   250
  0
VERTEX
  8
11TYP02-KEY1
  5
B2E
 10
0.0
 20
0.0
 30
0.0
 70
   128
 71
    96
 72
   252
 73
   -95
  0
VERTEX
  8
11TYP02-KEY1
  5
B2F
 10
0.0
 20
0.0
 30
0.0
 70
   128
 71
   -96
 72
    91
 73
    97
  0
VERTEX
  8
11TYP02-KEY1
  5
B30
 10
0.0
 20
0.0
 30
0.0
 70
   128
 71
    96
 72
   250
 73
   -91
  0
VERTEX
  8
11TYP02-KEY1
  5
B31
 10
0.0
 20
0.0
 30
0.0
 70
   128
 71
   -97
 72
    98
 73
   251
  0
VERTEX
  8
11TYP02-KEY1
  5
B32
 10
0.0
 20
0.0
 30
0.0
 70
   128
 71
    97
 72
    91
 73
   -98
  0
VERTEX
  8
11TYP02-KEY1
  5
B33
 10
0.0
 20
0.0
 30
0.0
 70
   128
 71
   102
 72
   104
 73
  -100
  0
VERTEX
  8
11TYP02-KEY1
  5
B34
 10
0.0
 20
0.0
 30
0.0
 70
   128
 71
   100
 72
   249
 73
  -102
  0
VERTEX
  8
11TYP02-KEY1
  5
B35
 10
0.0
 20
0.0
 30
0.0
 70
   128
 71
  -100
 72
    99
 73
   101
  0
VERTEX
  8
11TYP02-KEY1
  5
B36
 10
0.0
 20
0.0
 30
0.0
 70
   128
 71
   100
 72
   104
 73
   -99
  0
VERTEX
  8
11TYP02-KEY1
  5
B37
 10
0.0
 20
0.0
 30
0.0
 70
   128
 71
  -101
 72
   248
 73
   103
  0
VERTEX
  8
11TYP02-KEY1
  5
B38
 10
0.0
 20
0.0
 30
0.0
 70
   128
 71
   101
 72
    99
 73
  -248
  0
VERTEX
  8
11TYP02-KEY1
  5
B39
 10
0.0
 20
0.0
 30
0.0
 70
   128
 71
  -103
 72
   102
 73
   249
  0
VERTEX
  8
11TYP02-KEY1
  5
B3A
 10
0.0
 20
0.0
 30
0.0
 70
   128
 71
   103
 72
   248
 73
  -102
  0
VERTEX
  8
11TYP02-KEY1
  5
B3B
 10
0.0
 20
0.0
 30
0.0
 70
   128
 71
   104
 72
   245
 73
  -105
  0
VERTEX
  8
11TYP02-KEY1
  5
B3C
 10
0.0
 20
0.0
 30
0.0
 70
   128
 71
   105
 72
   246
 73
  -104
  0
VERTEX
  8
11TYP02-KEY1
  5
B3D
 10
0.0
 20
0.0
 30
0.0
 70
   128
 71
  -105
 72
   107
 73
   247
  0
VERTEX
  8
11TYP02-KEY1
  5
B3E
 10
0.0
 20
0.0
 30
0.0
 70
   128
 71
   105
 72
   245
 73
  -107
  0
VERTEX
  8
11TYP02-KEY1
  5
B3F
 10
0.0
 20
0.0
 30
0.0
 70
   128
 71
  -247
 72
    99
 73
   106
  0
VERTEX
  8
11TYP02-KEY1
  5
B40
 10
0.0
 20
0.0
 30
0.0
 70
   128
 71
   247
 72
   107
 73
   -99
  0
VERTEX
  8
11TYP02-KEY1
  5
B41
 10
0.0
 20
0.0
 30
0.0
 70
   128
 71
  -106
 72
   104
 73
   246
  0
VERTEX
  8
11TYP02-KEY1
  5
B42
 10
0.0
 20
0.0
 30
0.0
 70
   128
 71
   106
 72
    99
 73
  -104
  0
VERTEX
  8
11TYP02-KEY1
  5
B43
 10
0.0
 20
0.0
 30
0.0
 70
   128
 71
  -242
 72
   244
 73
   243
  0
VERTEX
  8
11TYP02-KEY1
  5
B44
 10
0.0
 20
0.0
 30
0.0
 70
   128
 71
   245
 72
  -244
 73
   242
  0
VERTEX
  8
11TYP02-KEY1
  5
B45
 10
0.0
 20
0.0
 30
0.0
 70
   128
 71
  -108
 72
   243
 73
   109
  0
VERTEX
  8
11TYP02-KEY1
  5
B46
 10
0.0
 20
0.0
 30
0.0
 70
   128
 71
   243
 72
   242
 73
  -108
  0
VERTEX
  8
11TYP02-KEY1
  5
B47
 10
0.0
 20
0.0
 30
0.0
 70
   128
 71
  -107
 72
   109
 73
   110
  0
VERTEX
  8
11TYP02-KEY1
  5
B48
 10
0.0
 20
0.0
 30
0.0
 70
   128
 71
   108
 72
  -109
 73
   107
  0
VERTEX
  8
11TYP02-KEY1
  5
B49
 10
0.0
 20
0.0
 30
0.0
 70
   128
 71
  -245
 72
   110
 73
   244
  0
VERTEX
  8
11TYP02-KEY1
  5
B4A
 10
0.0
 20
0.0
 30
0.0
 70
   128
 71
   107
 72
  -110
 73
   245
  0
VERTEX
  8
11TYP02-KEY1
  5
B4B
 10
0.0
 20
0.0
 30
0.0
 70
   128
 71
  -237
 72
   241
 73
   111
  0
VERTEX
  8
11TYP02-KEY1
  5
B4C
 10
0.0
 20
0.0
 30
0.0
 70
   128
 71
   242
 72
  -241
 73
   237
  0
VERTEX
  8
11TYP02-KEY1
  5
B4D
 10
0.0
 20
0.0
 30
0.0
 70
   128
 71
  -113
 72
   111
 73
   240
  0
VERTEX
  8
11TYP02-KEY1
  5
B4E
 10
0.0
 20
0.0
 30
0.0
 70
   128
 71
   111
 72
   237
 73
  -113
  0
VERTEX
  8
11TYP02-KEY1
  5
B4F
 10
0.0
 20
0.0
 30
0.0
 70
   128
 71
   108
 72
  -113
 73
   112
  0
VERTEX
  8
11TYP02-KEY1
  5
B50
 10
0.0
 20
0.0
 30
0.0
 70
   128
 71
   240
 72
  -112
 73
   113
  0
VERTEX
  8
11TYP02-KEY1
  5
B51
 10
0.0
 20
0.0
 30
0.0
 70
   128
 71
  -242
 72
   112
 73
   241
  0
VERTEX
  8
11TYP02-KEY1
  5
B52
 10
0.0
 20
0.0
 30
0.0
 70
   128
 71
   108
 72
  -112
 73
   242
  0
VERTEX
  8
11TYP02-KEY1
  5
B53
 10
0.0
 20
0.0
 30
0.0
 70
   128
 71
  -239
 72
   119
 73
   115
  0
VERTEX
  8
11TYP02-KEY1
  5
B54
 10
0.0
 20
0.0
 30
0.0
 70
   128
 71
   239
 72
   237
 73
  -119
  0
VERTEX
  8
11TYP02-KEY1
  5
B55
 10
0.0
 20
0.0
 30
0.0
 70
   128
 71
  -115
 72
   238
 73
   114
  0
VERTEX
  8
11TYP02-KEY1
  5
B56
 10
0.0
 20
0.0
 30
0.0
 70
   128
 71
   115
 72
   119
 73
  -238
  0
VERTEX
  8
11TYP02-KEY1
  5
B57
 10
0.0
 20
0.0
 30
0.0
 70
   128
 71
  -114
 72
   113
 73
   116
  0
VERTEX
  8
11TYP02-KEY1
  5
B58
 10
0.0
 20
0.0
 30
0.0
 70
   128
 71
   114
 72
   238
 73
  -113
  0
VERTEX
  8
11TYP02-KEY1
  5
B59
 10
0.0
 20
0.0
 30
0.0
 70
   128
 71
  -116
 72
   237
 73
   239
  0
VERTEX
  8
11TYP02-KEY1
  5
B5A
 10
0.0
 20
0.0
 30
0.0
 70
   128
 71
   116
 72
   113
 73
  -237
  0
VERTEX
  8
11TYP02-KEY1
  5
B5B
 10
0.0
 20
0.0
 30
0.0
 70
   128
 71
   119
 72
   232
 73
  -235
  0
VERTEX
  8
11TYP02-KEY1
  5
B5C
 10
0.0
 20
0.0
 30
0.0
 70
   128
 71
   235
 72
   234
 73
  -119
  0
VERTEX
  8
11TYP02-KEY1
  5
B5D
 10
0.0
 20
0.0
 30
0.0
 70
   128
 71
  -235
 72
   118
 73
   236
  0
VERTEX
  8
11TYP02-KEY1
  5
B5E
 10
0.0
 20
0.0
 30
0.0
 70
   128
 71
   235
 72
   232
 73
  -118
  0
VERTEX
  8
11TYP02-KEY1
  5
B5F
 10
0.0
 20
0.0
 30
0.0
 70
   128
 71
  -236
 72
   238
 73
   117
  0
VERTEX
  8
11TYP02-KEY1
  5
B60
 10
0.0
 20
0.0
 30
0.0
 70
   128
 71
   236
 72
   118
 73
  -238
  0
VERTEX
  8
11TYP02-KEY1
  5
B61
 10
0.0
 20
0.0
 30
0.0
 70
   128
 71
  -117
 72
   119
 73
   234
  0
VERTEX
  8
11TYP02-KEY1
  5
B62
 10
0.0
 20
0.0
 30
0.0
 70
   128
 71
   117
 72
   238
 73
  -119
  0
VERTEX
  8
11TYP02-KEY1
  5
B63
 10
0.0
 20
0.0
 30
0.0
 70
   128
 71
  -120
 72
   229
 73
   121
  0
VERTEX
  8
11TYP02-KEY1
  5
B64
 10
0.0
 20
0.0
 30
0.0
 70
   128
 71
   120
 72
   232
 73
  -229
  0
VERTEX
  8
11TYP02-KEY1
  5
B65
 10
0.0
 20
0.0
 30
0.0
 70
   128
 71
  -121
 72
   125
 73
   122
  0
VERTEX
  8
11TYP02-KEY1
  5
B66
 10
0.0
 20
0.0
 30
0.0
 70
   128
 71
   121
 72
   229
 73
  -125
  0
VERTEX
  8
11TYP02-KEY1
  5
B67
 10
0.0
 20
0.0
 30
0.0
 70
   128
 71
  -122
 72
   118
 73
   233
  0
VERTEX
  8
11TYP02-KEY1
  5
B68
 10
0.0
 20
0.0
 30
0.0
 70
   128
 71
   122
 72
   125
 73
  -118
  0
VERTEX
  8
11TYP02-KEY1
  5
B69
 10
0.0
 20
0.0
 30
0.0
 70
   128
 71
  -233
 72
   232
 73
   120
  0
VERTEX
  8
11TYP02-KEY1
  5
B6A
 10
0.0
 20
0.0
 30
0.0
 70
   128
 71
   233
 72
   118
 73
  -232
  0
VERTEX
  8
11TYP02-KEY1
  5
B6B
 10
0.0
 20
0.0
 30
0.0
 70
   128
 71
  -123
 72
   231
 73
   230
  0
VERTEX
  8
11TYP02-KEY1
  5
B6C
 10
0.0
 20
0.0
 30
0.0
 70
   128
 71
   229
 72
  -231
 73
   123
  0
VERTEX
  8
11TYP02-KEY1
  5
B6D
 10
0.0
 20
0.0
 30
0.0
 70
   128
 71
  -228
 72
   230
 73
   124
  0
VERTEX
  8
11TYP02-KEY1
  5
B6E
 10
0.0
 20
0.0
 30
0.0
 70
   128
 71
   230
 72
   123
 73
  -228
  0
VERTEX
  8
11TYP02-KEY1
  5
B6F
 10
0.0
 20
0.0
 30
0.0
 70
   128
 71
  -125
 72
   124
 73
   126
  0
VERTEX
  8
11TYP02-KEY1
  5
B70
 10
0.0
 20
0.0
 30
0.0
 70
   128
 71
   228
 72
  -124
 73
   125
  0
VERTEX
  8
11TYP02-KEY1
  5
B71
 10
0.0
 20
0.0
 30
0.0
 70
   128
 71
  -229
 72
   126
 73
   231
  0
VERTEX
  8
11TYP02-KEY1
  5
B72
 10
0.0
 20
0.0
 30
0.0
 70
   128
 71
   125
 72
  -126
 73
   229
  0
VERTEX
  8
11TYP02-KEY1
  5
B73
 10
0.0
 20
0.0
 30
0.0
 70
   128
 71
   226
 72
  -123
 73
   127
  0
VERTEX
  8
11TYP02-KEY1
  5
B74
 10
0.0
 20
0.0
 30
0.0
 70
   128
 71
   227
 72
  -127
 73
   123
  0
VERTEX
  8
11TYP02-KEY1
  5
B75
 10
0.0
 20
0.0
 30
0.0
 70
   128
 71
  -132
 72
   127
 73
   128
  0
VERTEX
  8
11TYP02-KEY1
  5
B76
 10
0.0
 20
0.0
 30
0.0
 70
   128
 71
   127
 72
   226
 73
  -132
  0
VERTEX
  8
11TYP02-KEY1
  5
B77
 10
0.0
 20
0.0
 30
0.0
 70
   128
 71
  -228
 72
   128
 73
   129
  0
VERTEX
  8
11TYP02-KEY1
  5
B78
 10
0.0
 20
0.0
 30
0.0
 70
   128
 71
   132
 72
  -128
 73
   228
  0
VERTEX
  8
11TYP02-KEY1
  5
B79
 10
0.0
 20
0.0
 30
0.0
 70
   128
 71
  -123
 72
   129
 73
   227
  0
VERTEX
  8
11TYP02-KEY1
  5
B7A
 10
0.0
 20
0.0
 30
0.0
 70
   128
 71
   228
 72
  -129
 73
   123
  0
VERTEX
  8
11TYP02-KEY1
  5
B7B
 10
0.0
 20
0.0
 30
0.0
 70
   128
 71
  -131
 72
   220
 73
   130
  0
VERTEX
  8
11TYP02-KEY1
  5
B7C
 10
0.0
 20
0.0
 30
0.0
 70
   128
 71
   131
 72
   226
 73
  -220
  0
VERTEX
  8
11TYP02-KEY1
  5
B7D
 10
0.0
 20
0.0
 30
0.0
 70
   128
 71
  -130
 72
   223
 73
   224
  0
VERTEX
  8
11TYP02-KEY1
  5
B7E
 10
0.0
 20
0.0
 30
0.0
 70
   128
 71
   130
 72
   220
 73
  -223
  0
VERTEX
  8
11TYP02-KEY1
  5
B7F
 10
0.0
 20
0.0
 30
0.0
 70
   128
 71
  -224
 72
   132
 73
   225
  0
VERTEX
  8
11TYP02-KEY1
  5
B80
 10
0.0
 20
0.0
 30
0.0
 70
   128
 71
   224
 72
   223
 73
  -132
  0
VERTEX
  8
11TYP02-KEY1
  5
B81
 10
0.0
 20
0.0
 30
0.0
 70
   128
 71
  -225
 72
   226
 73
   131
  0
VERTEX
  8
11TYP02-KEY1
  5
B82
 10
0.0
 20
0.0
 30
0.0
 70
   128
 71
   225
 72
   132
 73
  -226
  0
VERTEX
  8
11TYP02-KEY1
  5
B83
 10
0.0
 20
0.0
 30
0.0
 70
   128
 71
   220
 72
   135
 73
  -221
  0
VERTEX
  8
11TYP02-KEY1
  5
B84
 10
0.0
 20
0.0
 30
0.0
 70
   128
 71
   221
 72
   133
 73
  -220
  0
VERTEX
  8
11TYP02-KEY1
  5
B85
 10
0.0
 20
0.0
 30
0.0
 70
   128
 71
  -221
 72
   134
 73
   222
  0
VERTEX
  8
11TYP02-KEY1
  5
B86
 10
0.0
 20
0.0
 30
0.0
 70
   128
 71
   221
 72
   135
 73
  -134
  0
VERTEX
  8
11TYP02-KEY1
  5
B87
 10
0.0
 20
0.0
 30
0.0
 70
   128
 71
  -222
 72
   223
 73
   136
  0
VERTEX
  8
11TYP02-KEY1
  5
B88
 10
0.0
 20
0.0
 30
0.0
 70
   128
 71
   222
 72
   134
 73
  -223
  0
VERTEX
  8
11TYP02-KEY1
  5
B89
 10
0.0
 20
0.0
 30
0.0
 70
   128
 71
  -136
 72
   220
 73
   133
  0
VERTEX
  8
11TYP02-KEY1
  5
B8A
 10
0.0
 20
0.0
 30
0.0
 70
   128
 71
   136
 72
   223
 73
  -220
  0
VERTEX
  8
11TYP02-KEY1
  5
B8B
 10
0.0
 20
0.0
 30
0.0
 70
   128
 71
  -139
 72
   216
 73
   137
  0
VERTEX
  8
11TYP02-KEY1
  5
B8C
 10
0.0
 20
0.0
 30
0.0
 70
   128
 71
   139
 72
   218
 73
  -216
  0
VERTEX
  8
11TYP02-KEY1
  5
B8D
 10
0.0
 20
0.0
 30
0.0
 70
   128
 71
  -219
 72
   216
 73
   217
  0
VERTEX
  8
11TYP02-KEY1
  5
B8E
 10
0.0
 20
0.0
 30
0.0
 70
   128
 71
   219
 72
   137
 73
  -216
  0
VERTEX
  8
11TYP02-KEY1
  5
B8F
 10
0.0
 20
0.0
 30
0.0
 70
   128
 71
  -219
 72
   138
 73
   140
  0
VERTEX
  8
11TYP02-KEY1
  5
B90
 10
0.0
 20
0.0
 30
0.0
 70
   128
 71
   219
 72
   217
 73
  -138
  0
VERTEX
  8
11TYP02-KEY1
  5
B91
 10
0.0
 20
0.0
 30
0.0
 70
   128
 71
  -140
 72
   218
 73
   139
  0
VERTEX
  8
11TYP02-KEY1
  5
B92
 10
0.0
 20
0.0
 30
0.0
 70
   128
 71
   140
 72
   138
 73
  -218
  0
VERTEX
  8
11TYP02-KEY1
  5
B93
 10
0.0
 20
0.0
 30
0.0
 70
   128
 71
  -142
 72
   141
 73
   143
  0
VERTEX
  8
11TYP02-KEY1
  5
B94
 10
0.0
 20
0.0
 30
0.0
 70
   128
 71
   142
 72
   146
 73
  -141
  0
VERTEX
  8
11TYP02-KEY1
  5
B95
 10
0.0
 20
0.0
 30
0.0
 70
   128
 71
  -143
 72
   144
 73
   145
  0
VERTEX
  8
11TYP02-KEY1
  5
B96
 10
0.0
 20
0.0
 30
0.0
 70
   128
 71
   143
 72
   141
 73
  -144
  0
VERTEX
  8
11TYP02-KEY1
  5
B97
 10
0.0
 20
0.0
 30
0.0
 70
   128
 71
  -145
 72
   147
 73
   215
  0
VERTEX
  8
11TYP02-KEY1
  5
B98
 10
0.0
 20
0.0
 30
0.0
 70
   128
 71
   145
 72
   144
 73
  -147
  0
VERTEX
  8
11TYP02-KEY1
  5
B99
 10
0.0
 20
0.0
 30
0.0
 70
   128
 71
  -215
 72
   146
 73
   142
  0
VERTEX
  8
11TYP02-KEY1
  5
B9A
 10
0.0
 20
0.0
 30
0.0
 70
   128
 71
   215
 72
   147
 73
  -146
  0
VERTEX
  8
11TYP02-KEY1
  5
B9B
 10
0.0
 20
0.0
 30
0.0
 70
   128
 71
  -213
 72
   210
 73
   214
  0
VERTEX
  8
11TYP02-KEY1
  5
B9C
 10
0.0
 20
0.0
 30
0.0
 70
   128
 71
   213
 72
   141
 73
  -210
  0
VERTEX
  8
11TYP02-KEY1
  5
B9D
 10
0.0
 20
0.0
 30
0.0
 70
   128
 71
  -214
 72
   152
 73
   148
  0
VERTEX
  8
11TYP02-KEY1
  5
B9E
 10
0.0
 20
0.0
 30
0.0
 70
   128
 71
   214
 72
   210
 73
  -152
  0
VERTEX
  8
11TYP02-KEY1
  5
B9F
 10
0.0
 20
0.0
 30
0.0
 70
   128
 71
  -148
 72
   144
 73
   149
  0
VERTEX
  8
11TYP02-KEY1
  5
BA0
 10
0.0
 20
0.0
 30
0.0
 70
   128
 71
   148
 72
   152
 73
  -144
  0
VERTEX
  8
11TYP02-KEY1
  5
BA1
 10
0.0
 20
0.0
 30
0.0
 70
   128
 71
  -149
 72
   141
 73
   213
  0
VERTEX
  8
11TYP02-KEY1
  5
BA2
 10
0.0
 20
0.0
 30
0.0
 70
   128
 71
   149
 72
   144
 73
  -141
  0
VERTEX
  8
11TYP02-KEY1
  5
BA3
 10
0.0
 20
0.0
 30
0.0
 70
   128
 71
  -211
 72
   207
 73
   150
  0
VERTEX
  8
11TYP02-KEY1
  5
BA4
 10
0.0
 20
0.0
 30
0.0
 70
   128
 71
   211
 72
   210
 73
  -207
  0
VERTEX
  8
11TYP02-KEY1
  5
BA5
 10
0.0
 20
0.0
 30
0.0
 70
   128
 71
  -150
 72
   151
 73
   212
  0
VERTEX
  8
11TYP02-KEY1
  5
BA6
 10
0.0
 20
0.0
 30
0.0
 70
   128
 71
   150
 72
   207
 73
  -151
  0
VERTEX
  8
11TYP02-KEY1
  5
BA7
 10
0.0
 20
0.0
 30
0.0
 70
   128
 71
  -212
 72
   152
 73
   153
  0
VERTEX
  8
11TYP02-KEY1
  5
BA8
 10
0.0
 20
0.0
 30
0.0
 70
   128
 71
   212
 72
   151
 73
  -152
  0
VERTEX
  8
11TYP02-KEY1
  5
BA9
 10
0.0
 20
0.0
 30
0.0
 70
   128
 71
  -153
 72
   210
 73
   211
  0
VERTEX
  8
11TYP02-KEY1
  5
BAA
 10
0.0
 20
0.0
 30
0.0
 70
   128
 71
   153
 72
   152
 73
  -210
  0
VERTEX
  8
11TYP02-KEY1
  5
BAB
 10
0.0
 20
0.0
 30
0.0
 70
   128
 71
  -157
 72
   154
 73
   208
  0
VERTEX
  8
11TYP02-KEY1
  5
BAC
 10
0.0
 20
0.0
 30
0.0
 70
   128
 71
   157
 72
   207
 73
  -154
  0
VERTEX
  8
11TYP02-KEY1
  5
BAD
 10
0.0
 20
0.0
 30
0.0
 70
   128
 71
  -208
 72
   156
 73
   155
  0
VERTEX
  8
11TYP02-KEY1
  5
BAE
 10
0.0
 20
0.0
 30
0.0
 70
   128
 71
   208
 72
   154
 73
  -156
  0
VERTEX
  8
11TYP02-KEY1
  5
BAF
 10
0.0
 20
0.0
 30
0.0
 70
   128
 71
  -155
 72
   151
 73
   209
  0
VERTEX
  8
11TYP02-KEY1
  5
BB0
 10
0.0
 20
0.0
 30
0.0
 70
   128
 71
   155
 72
   156
 73
  -151
  0
VERTEX
  8
11TYP02-KEY1
  5
BB1
 10
0.0
 20
0.0
 30
0.0
 70
   128
 71
  -209
 72
   207
 73
   157
  0
VERTEX
  8
11TYP02-KEY1
  5
BB2
 10
0.0
 20
0.0
 30
0.0
 70
   128
 71
   209
 72
   151
 73
  -207
  0
VERTEX
  8
11TYP02-KEY1
  5
BB3
 10
0.0
 20
0.0
 30
0.0
 70
   128
 71
  -206
 72
   159
 73
   158
  0
VERTEX
  8
11TYP02-KEY1
  5
BB4
 10
0.0
 20
0.0
 30
0.0
 70
   128
 71
   206
 72
   154
 73
  -159
  0
VERTEX
  8
11TYP02-KEY1
  5
BB5
 10
0.0
 20
0.0
 30
0.0
 70
   128
 71
  -158
 72
   203
 73
   160
  0
VERTEX
  8
11TYP02-KEY1
  5
BB6
 10
0.0
 20
0.0
 30
0.0
 70
   128
 71
   158
 72
   159
 73
  -203
  0
VERTEX
  8
11TYP02-KEY1
  5
BB7
 10
0.0
 20
0.0
 30
0.0
 70
   128
 71
  -160
 72
   156
 73
   161
  0
VERTEX
  8
11TYP02-KEY1
  5
BB8
 10
0.0
 20
0.0
 30
0.0
 70
   128
 71
   160
 72
   203
 73
  -156
  0
VERTEX
  8
11TYP02-KEY1
  5
BB9
 10
0.0
 20
0.0
 30
0.0
 70
   128
 71
  -161
 72
   154
 73
   206
  0
VERTEX
  8
11TYP02-KEY1
  5
BBA
 10
0.0
 20
0.0
 30
0.0
 70
   128
 71
   161
 72
   156
 73
  -154
  0
VERTEX
  8
11TYP02-KEY1
  5
BBB
 10
0.0
 20
0.0
 30
0.0
 70
   128
 71
  -167
 72
   205
 73
   163
  0
VERTEX
  8
11TYP02-KEY1
  5
BBC
 10
0.0
 20
0.0
 30
0.0
 70
   128
 71
   159
 72
  -205
 73
   167
  0
VERTEX
  8
11TYP02-KEY1
  5
BBD
 10
0.0
 20
0.0
 30
0.0
 70
   128
 71
  -202
 72
   163
 73
   162
  0
VERTEX
  8
11TYP02-KEY1
  5
BBE
 10
0.0
 20
0.0
 30
0.0
 70
   128
 71
   163
 72
   167
 73
  -202
  0
VERTEX
  8
11TYP02-KEY1
  5
BBF
 10
0.0
 20
0.0
 30
0.0
 70
   128
 71
  -203
 72
   162
 73
   204
  0
VERTEX
  8
11TYP02-KEY1
  5
BC0
 10
0.0
 20
0.0
 30
0.0
 70
   128
 71
   202
 72
  -162
 73
   203
  0
VERTEX
  8
11TYP02-KEY1
  5
BC1
 10
0.0
 20
0.0
 30
0.0
 70
   128
 71
  -203
 72
   205
 73
   159
  0
VERTEX
  8
11TYP02-KEY1
  5
BC2
 10
0.0
 20
0.0
 30
0.0
 70
   128
 71
   204
 72
  -205
 73
   203
  0
VERTEX
  8
11TYP02-KEY1
  5
BC3
 10
0.0
 20
0.0
 30
0.0
 70
   128
 71
  -197
 72
   166
 73
   164
  0
VERTEX
  8
11TYP02-KEY1
  5
BC4
 10
0.0
 20
0.0
 30
0.0
 70
   128
 71
   167
 72
  -166
 73
   197
  0
VERTEX
  8
11TYP02-KEY1
  5
BC5
 10
0.0
 20
0.0
 30
0.0
 70
   128
 71
  -171
 72
   164
 73
   165
  0
VERTEX
  8
11TYP02-KEY1
  5
BC6
 10
0.0
 20
0.0
 30
0.0
 70
   128
 71
   164
 72
   197
 73
  -171
  0
VERTEX
  8
11TYP02-KEY1
  5
BC7
 10
0.0
 20
0.0
 30
0.0
 70
   128
 71
  -202
 72
   165
 73
   201
  0
VERTEX
  8
11TYP02-KEY1
  5
BC8
 10
0.0
 20
0.0
 30
0.0
 70
   128
 71
   171
 72
  -165
 73
   202
  0
VERTEX
  8
11TYP02-KEY1
  5
BC9
 10
0.0
 20
0.0
 30
0.0
 70
   128
 71
  -167
 72
   201
 73
   166
  0
VERTEX
  8
11TYP02-KEY1
  5
BCA
 10
0.0
 20
0.0
 30
0.0
 70
   128
 71
   202
 72
  -201
 73
   167
  0
VERTEX
  8
11TYP02-KEY1
  5
BCB
 10
0.0
 20
0.0
 30
0.0
 70
   128
 71
  -200
 72
   168
 73
   169
  0
VERTEX
  8
11TYP02-KEY1
  5
BCC
 10
0.0
 20
0.0
 30
0.0
 70
   128
 71
   200
 72
   197
 73
  -168
  0
VERTEX
  8
11TYP02-KEY1
  5
BCD
 10
0.0
 20
0.0
 30
0.0
 70
   128
 71
  -169
 72
   170
 73
   198
  0
VERTEX
  8
11TYP02-KEY1
  5
BCE
 10
0.0
 20
0.0
 30
0.0
 70
   128
 71
   169
 72
   168
 73
  -170
  0
VERTEX
  8
11TYP02-KEY1
  5
BCF
 10
0.0
 20
0.0
 30
0.0
 70
   128
 71
  -198
 72
   171
 73
   199
  0
VERTEX
  8
11TYP02-KEY1
  5
BD0
 10
0.0
 20
0.0
 30
0.0
 70
   128
 71
   198
 72
   170
 73
  -171
  0
VERTEX
  8
11TYP02-KEY1
  5
BD1
 10
0.0
 20
0.0
 30
0.0
 70
   128
 71
  -200
 72
   171
 73
   197
  0
VERTEX
  8
11TYP02-KEY1
  5
BD2
 10
0.0
 20
0.0
 30
0.0
 70
   128
 71
   200
 72
   199
 73
  -171
  0
VERTEX
  8
11TYP02-KEY1
  5
BD3
 10
0.0
 20
0.0
 30
0.0
 70
   128
 71
  -196
 72
   188
 73
   172
  0
VERTEX
  8
11TYP02-KEY1
  5
BD4
 10
0.0
 20
0.0
 30
0.0
 70
   128
 71
   196
 72
   168
 73
  -188
  0
VERTEX
  8
11TYP02-KEY1
  5
BD5
 10
0.0
 20
0.0
 30
0.0
 70
   128
 71
  -172
 72
   174
 73
   194
  0
VERTEX
  8
11TYP02-KEY1
  5
BD6
 10
0.0
 20
0.0
 30
0.0
 70
   128
 71
   172
 72
   188
 73
  -174
  0
VERTEX
  8
11TYP02-KEY1
  5
BD7
 10
0.0
 20
0.0
 30
0.0
 70
   128
 71
  -194
 72
   170
 73
   195
  0
VERTEX
  8
11TYP02-KEY1
  5
BD8
 10
0.0
 20
0.0
 30
0.0
 70
   128
 71
   194
 72
   174
 73
  -170
  0
VERTEX
  8
11TYP02-KEY1
  5
BD9
 10
0.0
 20
0.0
 30
0.0
 70
   128
 71
  -195
 72
   168
 73
   196
  0
VERTEX
  8
11TYP02-KEY1
  5
BDA
 10
0.0
 20
0.0
 30
0.0
 70
   128
 71
   195
 72
   170
 73
  -168
  0
VERTEX
  8
11TYP02-KEY1
  5
BDB
 10
0.0
 20
0.0
 30
0.0
 70
   128
 71
  -191
 72
   189
 73
   173
  0
VERTEX
  8
11TYP02-KEY1
  5
BDC
 10
0.0
 20
0.0
 30
0.0
 70
   128
 71
   191
 72
   188
 73
  -189
  0
VERTEX
  8
11TYP02-KEY1
  5
BDD
 10
0.0
 20
0.0
 30
0.0
 70
   128
 71
  -173
 72
   190
 73
   192
  0
VERTEX
  8
11TYP02-KEY1
  5
BDE
 10
0.0
 20
0.0
 30
0.0
 70
   128
 71
   173
 72
   189
 73
  -190
  0
VERTEX
  8
11TYP02-KEY1
  5
BDF
 10
0.0
 20
0.0
 30
0.0
 70
   128
 71
  -192
 72
   174
 73
   193
  0
VERTEX
  8
11TYP02-KEY1
  5
BE0
 10
0.0
 20
0.0
 30
0.0
 70
   128
 71
   192
 72
   190
 73
  -174
  0
VERTEX
  8
11TYP02-KEY1
  5
BE1
 10
0.0
 20
0.0
 30
0.0
 70
   128
 71
  -193
 72
   188
 73
   191
  0
VERTEX
  8
11TYP02-KEY1
  5
BE2
 10
0.0
 20
0.0
 30
0.0
 70
   128
 71
   193
 72
   174
 73
  -188
  0
VERTEX
  8
11TYP02-KEY1
  5
BE3
 10
0.0
 20
0.0
 30
0.0
 70
   128
 71
   186
 72
   177
 73
  -175
  0
VERTEX
  8
11TYP02-KEY1
  5
BE4
 10
0.0
 20
0.0
 30
0.0
 70
   128
 71
   175
 72
   176
 73
  -186
  0
VERTEX
  8
11TYP02-KEY1
  5
BE5
 10
0.0
 20
0.0
 30
0.0
 70
   128
 71
   176
 72
   175
 73
  -177
  0
VERTEX
  8
11TYP02-KEY1
  5
BE6
 10
0.0
 20
0.0
 30
0.0
 70
   128
 71
   177
 72
   186
 73
  -176
  0
VERTEX
  8
11TYP02-KEY1
  5
BE7
 10
0.0
 20
0.0
 30
0.0
 70
   128
 71
   179
 72
   178
 73
  -181
  0
VERTEX
  8
11TYP02-KEY1
  5
BE8
 10
0.0
 20
0.0
 30
0.0
 70
   128
 71
   181
 72
   180
 73
  -179
  0
VERTEX
  8
11TYP02-KEY1
  5
BE9
 10
0.0
 20
0.0
 30
0.0
 70
   128
 71
   181
 72
  -180
 73
   178
  0
VERTEX
  8
11TYP02-KEY1
  5
BEA
 10
0.0
 20
0.0
 30
0.0
 70
   128
 71
   179
 72
  -178
 73
   180
  0
VERTEX
  8
11TYP02-KEY1
  5
BEB
 10
0.0
 20
0.0
 30
0.0
 70
   128
 71
   -50
 72
   179
 73
   182
  0
VERTEX
  8
11TYP02-KEY1
  5
BEC
 10
0.0
 20
0.0
 30
0.0
 70
   128
 71
   178
 72
  -179
 73
    50
  0
VERTEX
  8
11TYP02-KEY1
  5
BED
 10
0.0
 20
0.0
 30
0.0
 70
   128
 71
  -180
 72
   271
 73
   218
  0
VERTEX
  8
11TYP02-KEY1
  5
BEE
 10
0.0
 20
0.0
 30
0.0
 70
   128
 71
   181
 72
  -271
 73
   180
  0
VERTEX
  8
11TYP02-KEY1
  5
BEF
 10
0.0
 20
0.0
 30
0.0
 70
   128
 71
  -181
 72
    50
 73
   271
  0
VERTEX
  8
11TYP02-KEY1
  5
BF0
 10
0.0
 20
0.0
 30
0.0
 70
   128
 71
   181
 72
   178
 73
   -50
  0
VERTEX
  8
11TYP02-KEY1
  5
BF1
 10
0.0
 20
0.0
 30
0.0
 70
   128
 71
  -182
 72
   180
 73
   218
  0
VERTEX
  8
11TYP02-KEY1
  5
BF2
 10
0.0
 20
0.0
 30
0.0
 70
   128
 71
   179
 72
  -180
 73
   182
  0
VERTEX
  8
11TYP02-KEY1
  5
BF3
 10
0.0
 20
0.0
 30
0.0
 70
   128
 71
  -175
 72
   183
 73
   176
  0
VERTEX
  8
11TYP02-KEY1
  5
BF4
 10
0.0
 20
0.0
 30
0.0
 70
   128
 71
   184
 72
  -183
 73
   175
  0
VERTEX
  8
11TYP02-KEY1
  5
BF5
 10
0.0
 20
0.0
 30
0.0
 70
   128
 71
  -186
 72
   185
 73
   177
  0
VERTEX
  8
11TYP02-KEY1
  5
BF6
 10
0.0
 20
0.0
 30
0.0
 70
   128
 71
   187
 72
  -185
 73
   186
  0
VERTEX
  8
11TYP02-KEY1
  5
BF7
 10
0.0
 20
0.0
 30
0.0
 70
   128
 71
  -177
 72
   184
 73
   175
  0
VERTEX
  8
11TYP02-KEY1
  5
BF8
 10
0.0
 20
0.0
 30
0.0
 70
   128
 71
   177
 72
   185
 73
  -184
  0
VERTEX
  8
11TYP02-KEY1
  5
BF9
 10
0.0
 20
0.0
 30
0.0
 70
   128
 71
  -183
 72
   186
 73
   176
  0
VERTEX
  8
11TYP02-KEY1
  5
BFA
 10
0.0
 20
0.0
 30
0.0
 70
   128
 71
   187
 72
  -186
 73
   183
  0
VERTEX
  8
11TYP02-KEY1
  5
BFB
 10
0.0
 20
0.0
 30
0.0
 70
   128
 71
   190
 72
   189
 73
  -188
  0
VERTEX
  8
11TYP02-KEY1
  5
BFC
 10
0.0
 20
0.0
 30
0.0
 70
   128
 71
   188
 72
   174
 73
  -190
  0
VERTEX
  8
11TYP02-KEY1
  5
BFD
 10
0.0
 20
0.0
 30
0.0
 70
   128
 71
   173
 72
  -192
 73
   191
  0
VERTEX
  8
11TYP02-KEY1
  5
BFE
 10
0.0
 20
0.0
 30
0.0
 70
   128
 71
   193
 72
  -191
 73
   192
  0
VERTEX
  8
11TYP02-KEY1
  5
BFF
 10
0.0
 20
0.0
 30
0.0
 70
   128
 71
   188
 72
  -174
 73
   168
  0
VERTEX
  8
11TYP02-KEY1
  5
C00
 10
0.0
 20
0.0
 30
0.0
 70
   128
 71
   168
 72
   170
 73
  -174
  0
VERTEX
  8
11TYP02-KEY1
  5
C01
 10
0.0
 20
0.0
 30
0.0
 70
   128
 71
   172
 72
  -194
 73
   196
  0
VERTEX
  8
11TYP02-KEY1
  5
C02
 10
0.0
 20
0.0
 30
0.0
 70
   128
 71
   195
 72
  -196
 73
   194
  0
VERTEX
  8
11TYP02-KEY1
  5
C03
 10
0.0
 20
0.0
 30
0.0
 70
   128
 71
   168
 72
  -170
 73
   197
  0
VERTEX
  8
11TYP02-KEY1
  5
C04
 10
0.0
 20
0.0
 30
0.0
 70
   128
 71
   197
 72
   171
 73
  -170
  0
VERTEX
  8
11TYP02-KEY1
  5
C05
 10
0.0
 20
0.0
 30
0.0
 70
   128
 71
   169
 72
  -198
 73
   200
  0
VERTEX
  8
11TYP02-KEY1
  5
C06
 10
0.0
 20
0.0
 30
0.0
 70
   128
 71
   199
 72
  -200
 73
   198
  0
VERTEX
  8
11TYP02-KEY1
  5
C07
 10
0.0
 20
0.0
 30
0.0
 70
   128
 71
   197
 72
  -171
 73
   167
  0
VERTEX
  8
11TYP02-KEY1
  5
C08
 10
0.0
 20
0.0
 30
0.0
 70
   128
 71
   202
 72
  -167
 73
   171
  0
VERTEX
  8
11TYP02-KEY1
  5
C09
 10
0.0
 20
0.0
 30
0.0
 70
   128
 71
   165
 72
   164
 73
  -166
  0
VERTEX
  8
11TYP02-KEY1
  5
C0A
 10
0.0
 20
0.0
 30
0.0
 70
   128
 71
   166
 72
   201
 73
  -165
  0
VERTEX
  8
11TYP02-KEY1
  5
C0B
 10
0.0
 20
0.0
 30
0.0
 70
   128
 71
   167
 72
  -202
 73
   159
  0
VERTEX
  8
11TYP02-KEY1
  5
C0C
 10
0.0
 20
0.0
 30
0.0
 70
   128
 71
   203
 72
  -159
 73
   202
  0
VERTEX
  8
11TYP02-KEY1
  5
C0D
 10
0.0
 20
0.0
 30
0.0
 70
   128
 71
   162
 72
   163
 73
  -205
  0
VERTEX
  8
11TYP02-KEY1
  5
C0E
 10
0.0
 20
0.0
 30
0.0
 70
   128
 71
   205
 72
   204
 73
  -162
  0
VERTEX
  8
11TYP02-KEY1
  5
C0F
 10
0.0
 20
0.0
 30
0.0
 70
   128
 71
   159
 72
  -203
 73
   154
  0
VERTEX
  8
11TYP02-KEY1
  5
C10
 10
0.0
 20
0.0
 30
0.0
 70
   128
 71
   154
 72
   156
 73
  -203
  0
VERTEX
  8
11TYP02-KEY1
  5
C11
 10
0.0
 20
0.0
 30
0.0
 70
   128
 71
   158
 72
  -160
 73
   206
  0
VERTEX
  8
11TYP02-KEY1
  5
C12
 10
0.0
 20
0.0
 30
0.0
 70
   128
 71
   161
 72
  -206
 73
   160
  0
VERTEX
  8
11TYP02-KEY1
  5
C13
 10
0.0
 20
0.0
 30
0.0
 70
   128
 71
   154
 72
  -156
 73
   207
  0
VERTEX
  8
11TYP02-KEY1
  5
C14
 10
0.0
 20
0.0
 30
0.0
 70
   128
 71
   207
 72
   151
 73
  -156
  0
VERTEX
  8
11TYP02-KEY1
  5
C15
 10
0.0
 20
0.0
 30
0.0
 70
   128
 71
   208
 72
  -155
 73
   157
  0
VERTEX
  8
11TYP02-KEY1
  5
C16
 10
0.0
 20
0.0
 30
0.0
 70
   128
 71
   209
 72
  -157
 73
   155
  0
VERTEX
  8
11TYP02-KEY1
  5
C17
 10
0.0
 20
0.0
 30
0.0
 70
   128
 71
   207
 72
  -151
 73
   210
  0
VERTEX
  8
11TYP02-KEY1
  5
C18
 10
0.0
 20
0.0
 30
0.0
 70
   128
 71
   210
 72
   152
 73
  -151
  0
VERTEX
  8
11TYP02-KEY1
  5
C19
 10
0.0
 20
0.0
 30
0.0
 70
   128
 71
   150
 72
  -212
 73
   211
  0
VERTEX
  8
11TYP02-KEY1
  5
C1A
 10
0.0
 20
0.0
 30
0.0
 70
   128
 71
   153
 72
  -211
 73
   212
  0
VERTEX
  8
11TYP02-KEY1
  5
C1B
 10
0.0
 20
0.0
 30
0.0
 70
   128
 71
   210
 72
  -152
 73
   141
  0
VERTEX
  8
11TYP02-KEY1
  5
C1C
 10
0.0
 20
0.0
 30
0.0
 70
   128
 71
   141
 72
   144
 73
  -152
  0
VERTEX
  8
11TYP02-KEY1
  5
C1D
 10
0.0
 20
0.0
 30
0.0
 70
   128
 71
   214
 72
  -148
 73
   213
  0
VERTEX
  8
11TYP02-KEY1
  5
C1E
 10
0.0
 20
0.0
 30
0.0
 70
   128
 71
   149
 72
  -213
 73
   148
  0
VERTEX
  8
11TYP02-KEY1
  5
C1F
 10
0.0
 20
0.0
 30
0.0
 70
   128
 71
   141
 72
  -144
 73
   146
  0
VERTEX
  8
11TYP02-KEY1
  5
C20
 10
0.0
 20
0.0
 30
0.0
 70
   128
 71
   146
 72
   147
 73
  -144
  0
VERTEX
  8
11TYP02-KEY1
  5
C21
 10
0.0
 20
0.0
 30
0.0
 70
   128
 71
   143
 72
  -145
 73
   142
  0
VERTEX
  8
11TYP02-KEY1
  5
C22
 10
0.0
 20
0.0
 30
0.0
 70
   128
 71
   215
 72
  -142
 73
   145
  0
VERTEX
  8
11TYP02-KEY1
  5
C23
 10
0.0
 20
0.0
 30
0.0
 70
   128
 71
   216
 72
  -217
 73
   218
  0
VERTEX
  8
11TYP02-KEY1
  5
C24
 10
0.0
 20
0.0
 30
0.0
 70
   128
 71
   218
 72
   138
 73
  -217
  0
VERTEX
  8
11TYP02-KEY1
  5
C25
 10
0.0
 20
0.0
 30
0.0
 70
   128
 71
   137
 72
  -219
 73
   139
  0
VERTEX
  8
11TYP02-KEY1
  5
C26
 10
0.0
 20
0.0
 30
0.0
 70
   128
 71
   140
 72
  -139
 73
   219
  0
VERTEX
  8
11TYP02-KEY1
  5
C27
 10
0.0
 20
0.0
 30
0.0
 70
   128
 71
   134
 72
   135
 73
  -220
  0
VERTEX
  8
11TYP02-KEY1
  5
C28
 10
0.0
 20
0.0
 30
0.0
 70
   128
 71
   220
 72
   223
 73
  -134
  0
VERTEX
  8
11TYP02-KEY1
  5
C29
 10
0.0
 20
0.0
 30
0.0
 70
   128
 71
   221
 72
  -222
 73
   133
  0
VERTEX
  8
11TYP02-KEY1
  5
C2A
 10
0.0
 20
0.0
 30
0.0
 70
   128
 71
   136
 72
  -133
 73
   222
  0
VERTEX
  8
11TYP02-KEY1
  5
C2B
 10
0.0
 20
0.0
 30
0.0
 70
   128
 71
   220
 72
  -223
 73
   226
  0
VERTEX
  8
11TYP02-KEY1
  5
C2C
 10
0.0
 20
0.0
 30
0.0
 70
   128
 71
   226
 72
   132
 73
  -223
  0
VERTEX
  8
11TYP02-KEY1
  5
C2D
 10
0.0
 20
0.0
 30
0.0
 70
   128
 71
   130
 72
  -224
 73
   131
  0
VERTEX
  8
11TYP02-KEY1
  5
C2E
 10
0.0
 20
0.0
 30
0.0
 70
   128
 71
   225
 72
  -131
 73
   224
  0
VERTEX
  8
11TYP02-KEY1
  5
C2F
 10
0.0
 20
0.0
 30
0.0
 70
   128
 71
   226
 72
  -132
 73
   123
  0
VERTEX
  8
11TYP02-KEY1
  5
C30
 10
0.0
 20
0.0
 30
0.0
 70
   128
 71
   228
 72
  -123
 73
   132
  0
VERTEX
  8
11TYP02-KEY1
  5
C31
 10
0.0
 20
0.0
 30
0.0
 70
   128
 71
   128
 72
   127
 73
  -227
  0
VERTEX
  8
11TYP02-KEY1
  5
C32
 10
0.0
 20
0.0
 30
0.0
 70
   128
 71
   227
 72
   129
 73
  -128
  0
VERTEX
  8
11TYP02-KEY1
  5
C33
 10
0.0
 20
0.0
 30
0.0
 70
   128
 71
   123
 72
  -228
 73
   229
  0
VERTEX
  8
11TYP02-KEY1
  5
C34
 10
0.0
 20
0.0
 30
0.0
 70
   128
 71
   125
 72
  -229
 73
   228
  0
VERTEX
  8
11TYP02-KEY1
  5
C35
 10
0.0
 20
0.0
 30
0.0
 70
   128
 71
   124
 72
   230
 73
  -231
  0
VERTEX
  8
11TYP02-KEY1
  5
C36
 10
0.0
 20
0.0
 30
0.0
 70
   128
 71
   231
 72
   126
 73
  -124
  0
VERTEX
  8
11TYP02-KEY1
  5
C37
 10
0.0
 20
0.0
 30
0.0
 70
   128
 71
   229
 72
  -125
 73
   232
  0
VERTEX
  8
11TYP02-KEY1
  5
C38
 10
0.0
 20
0.0
 30
0.0
 70
   128
 71
   232
 72
   118
 73
  -125
  0
VERTEX
  8
11TYP02-KEY1
  5
C39
 10
0.0
 20
0.0
 30
0.0
 70
   128
 71
   121
 72
  -122
 73
   120
  0
VERTEX
  8
11TYP02-KEY1
  5
C3A
 10
0.0
 20
0.0
 30
0.0
 70
   128
 71
   233
 72
  -120
 73
   122
  0
VERTEX
  8
11TYP02-KEY1
  5
C3B
 10
0.0
 20
0.0
 30
0.0
 70
   128
 71
   232
 72
  -118
 73
   119
  0
VERTEX
  8
11TYP02-KEY1
  5
C3C
 10
0.0
 20
0.0
 30
0.0
 70
   128
 71
   119
 72
   238
 73
  -118
  0
VERTEX
  8
11TYP02-KEY1
  5
C3D
 10
0.0
 20
0.0
 30
0.0
 70
   128
 71
   235
 72
  -236
 73
   234
  0
VERTEX
  8
11TYP02-KEY1
  5
C3E
 10
0.0
 20
0.0
 30
0.0
 70
   128
 71
   117
 72
  -234
 73
   236
  0
VERTEX
  8
11TYP02-KEY1
  5
C3F
 10
0.0
 20
0.0
 30
0.0
 70
   128
 71
   119
 72
  -238
 73
   237
  0
VERTEX
  8
11TYP02-KEY1
  5
C40
 10
0.0
 20
0.0
 30
0.0
 70
   128
 71
   237
 72
   113
 73
  -238
  0
VERTEX
  8
11TYP02-KEY1
  5
C41
 10
0.0
 20
0.0
 30
0.0
 70
   128
 71
   115
 72
  -114
 73
   239
  0
VERTEX
  8
11TYP02-KEY1
  5
C42
 10
0.0
 20
0.0
 30
0.0
 70
   128
 71
   116
 72
  -239
 73
   114
  0
VERTEX
  8
11TYP02-KEY1
  5
C43
 10
0.0
 20
0.0
 30
0.0
 70
   128
 71
   237
 72
  -113
 73
   242
  0
VERTEX
  8
11TYP02-KEY1
  5
C44
 10
0.0
 20
0.0
 30
0.0
 70
   128
 71
   108
 72
  -242
 73
   113
  0
VERTEX
  8
11TYP02-KEY1
  5
C45
 10
0.0
 20
0.0
 30
0.0
 70
   128
 71
   240
 72
   111
 73
  -241
  0
VERTEX
  8
11TYP02-KEY1
  5
C46
 10
0.0
 20
0.0
 30
0.0
 70
   128
 71
   241
 72
   112
 73
  -240
  0
VERTEX
  8
11TYP02-KEY1
  5
C47
 10
0.0
 20
0.0
 30
0.0
 70
   128
 71
   242
 72
  -108
 73
   245
  0
VERTEX
  8
11TYP02-KEY1
  5
C48
 10
0.0
 20
0.0
 30
0.0
 70
   128
 71
   107
 72
  -245
 73
   108
  0
VERTEX
  8
11TYP02-KEY1
  5
C49
 10
0.0
 20
0.0
 30
0.0
 70
   128
 71
   109
 72
   243
 73
  -244
  0
VERTEX
  8
11TYP02-KEY1
  5
C4A
 10
0.0
 20
0.0
 30
0.0
 70
   128
 71
   244
 72
   110
 73
  -109
  0
VERTEX
  8
11TYP02-KEY1
  5
C4B
 10
0.0
 20
0.0
 30
0.0
 70
   128
 71
   245
 72
  -107
 73
   104
  0
VERTEX
  8
11TYP02-KEY1
  5
C4C
 10
0.0
 20
0.0
 30
0.0
 70
   128
 71
   104
 72
    99
 73
  -107
  0
VERTEX
  8
11TYP02-KEY1
  5
C4D
 10
0.0
 20
0.0
 30
0.0
 70
   128
 71
   105
 72
  -247
 73
   246
  0
VERTEX
  8
11TYP02-KEY1
  5
C4E
 10
0.0
 20
0.0
 30
0.0
 70
   128
 71
   106
 72
  -246
 73
   247
  0
VERTEX
  8
11TYP02-KEY1
  5
C4F
 10
0.0
 20
0.0
 30
0.0
 70
   128
 71
   104
 72
   -99
 73
   102
  0
VERTEX
  8
11TYP02-KEY1
  5
C50
 10
0.0
 20
0.0
 30
0.0
 70
   128
 71
   102
 72
   248
 73
   -99
  0
VERTEX
  8
11TYP02-KEY1
  5
C51
 10
0.0
 20
0.0
 30
0.0
 70
   128
 71
   100
 72
  -101
 73
   249
  0
VERTEX
  8
11TYP02-KEY1
  5
C52
 10
0.0
 20
0.0
 30
0.0
 70
   128
 71
   103
 72
  -249
 73
   101
  0
VERTEX
  8
11TYP02-KEY1
  5
C53
 10
0.0
 20
0.0
 30
0.0
 70
   128
 71
   250
 72
    95
 73
   -98
  0
VERTEX
  8
11TYP02-KEY1
  5
C54
 10
0.0
 20
0.0
 30
0.0
 70
   128
 71
    98
 72
    91
 73
  -250
  0
VERTEX
  8
11TYP02-KEY1
  5
C55
 10
0.0
 20
0.0
 30
0.0
 70
   128
 71
   252
 72
   -96
 73
   251
  0
VERTEX
  8
11TYP02-KEY1
  5
C56
 10
0.0
 20
0.0
 30
0.0
 70
   128
 71
    97
 72
  -251
 73
    96
  0
VERTEX
  8
11TYP02-KEY1
  5
C57
 10
0.0
 20
0.0
 30
0.0
 70
   128
 71
    98
 72
   -91
 73
    92
  0
VERTEX
  8
11TYP02-KEY1
  5
C58
 10
0.0
 20
0.0
 30
0.0
 70
   128
 71
    92
 72
    93
 73
   -91
  0
VERTEX
  8
11TYP02-KEY1
  5
C59
 10
0.0
 20
0.0
 30
0.0
 70
   128
 71
    89
 72
   -90
 73
   253
  0
VERTEX
  8
11TYP02-KEY1
  5
C5A
 10
0.0
 20
0.0
 30
0.0
 70
   128
 71
    94
 72
  -253
 73
    90
  0
VERTEX
  8
11TYP02-KEY1
  5
C5B
 10
0.0
 20
0.0
 30
0.0
 70
   128
 71
    92
 72
   -93
 73
    84
  0
VERTEX
  8
11TYP02-KEY1
  5
C5C
 10
0.0
 20
0.0
 30
0.0
 70
   128
 71
    84
 72
   257
 73
   -93
  0
VERTEX
  8
11TYP02-KEY1
  5
C5D
 10
0.0
 20
0.0
 30
0.0
 70
   128
 71
   254
 72
   -88
 73
    87
  0
VERTEX
  8
11TYP02-KEY1
  5
C5E
 10
0.0
 20
0.0
 30
0.0
 70
   128
 71
   255
 72
   -87
 73
    88
  0
VERTEX
  8
11TYP02-KEY1
  5
C5F
 10
0.0
 20
0.0
 30
0.0
 70
   128
 71
    84
 72
  -257
 73
   256
  0
VERTEX
  8
11TYP02-KEY1
  5
C60
 10
0.0
 20
0.0
 30
0.0
 70
   128
 71
    85
 72
  -256
 73
   257
  0
VERTEX
  8
11TYP02-KEY1
  5
C61
 10
0.0
 20
0.0
 30
0.0
 70
   128
 71
   259
 72
    83
 73
  -258
  0
VERTEX
  8
11TYP02-KEY1
  5
C62
 10
0.0
 20
0.0
 30
0.0
 70
   128
 71
   258
 72
    86
 73
  -259
  0
VERTEX
  8
11TYP02-KEY1
  5
C63
 10
0.0
 20
0.0
 30
0.0
 70
   128
 71
   256
 72
   -85
 73
   260
  0
VERTEX
  8
11TYP02-KEY1
  5
C64
 10
0.0
 20
0.0
 30
0.0
 70
   128
 71
    82
 72
  -260
 73
    85
  0
VERTEX
  8
11TYP02-KEY1
  5
C65
 10
0.0
 20
0.0
 30
0.0
 70
   128
 71
    79
 72
    80
 73
  -261
  0
VERTEX
  8
11TYP02-KEY1
  5
C66
 10
0.0
 20
0.0
 30
0.0
 70
   128
 71
   261
 72
    81
 73
   -79
  0
VERTEX
  8
11TYP02-KEY1
  5
C67
 10
0.0
 20
0.0
 30
0.0
 70
   128
 71
   260
 72
   -82
 73
   262
  0
VERTEX
  8
11TYP02-KEY1
  5
C68
 10
0.0
 20
0.0
 30
0.0
 70
   128
 71
    72
 72
  -262
 73
    82
  0
VERTEX
  8
11TYP02-KEY1
  5
C69
 10
0.0
 20
0.0
 30
0.0
 70
   128
 71
    77
 72
    76
 73
   -75
  0
VERTEX
  8
11TYP02-KEY1
  5
C6A
 10
0.0
 20
0.0
 30
0.0
 70
   128
 71
    75
 72
    78
 73
   -77
  0
VERTEX
  8
11TYP02-KEY1
  5
C6B
 10
0.0
 20
0.0
 30
0.0
 70
   128
 71
   262
 72
   -72
 73
   265
  0
VERTEX
  8
11TYP02-KEY1
  5
C6C
 10
0.0
 20
0.0
 30
0.0
 70
   128
 71
    68
 72
  -265
 73
    72
  0
VERTEX
  8
11TYP02-KEY1
  5
C6D
 10
0.0
 20
0.0
 30
0.0
 70
   128
 71
    73
 72
    71
 73
  -263
  0
VERTEX
  8
11TYP02-KEY1
  5
C6E
 10
0.0
 20
0.0
 30
0.0
 70
   128
 71
   263
 72
    74
 73
   -73
  0
VERTEX
  8
11TYP02-KEY1
  5
C6F
 10
0.0
 20
0.0
 30
0.0
 70
   128
 71
   265
 72
   -68
 73
   264
  0
VERTEX
  8
11TYP02-KEY1
  5
C70
 10
0.0
 20
0.0
 30
0.0
 70
   128
 71
   264
 72
   266
 73
   -68
  0
VERTEX
  8
11TYP02-KEY1
  5
C71
 10
0.0
 20
0.0
 30
0.0
 70
   128
 71
    69
 72
   -70
 73
   268
  0
VERTEX
  8
11TYP02-KEY1
  5
C72
 10
0.0
 20
0.0
 30
0.0
 70
   128
 71
   267
 72
  -268
 73
    70
  0
VERTEX
  8
11TYP02-KEY1
  5
C73
 10
0.0
 20
0.0
 30
0.0
 70
   128
 71
   264
 72
  -266
 73
    59
  0
VERTEX
  8
11TYP02-KEY1
  5
C74
 10
0.0
 20
0.0
 30
0.0
 70
   128
 71
    59
 72
    66
 73
  -266
  0
VERTEX
  8
11TYP02-KEY1
  5
C75
 10
0.0
 20
0.0
 30
0.0
 70
   128
 71
    65
 72
  -269
 73
   270
  0
VERTEX
  8
11TYP02-KEY1
  5
C76
 10
0.0
 20
0.0
 30
0.0
 70
   128
 71
    67
 72
  -270
 73
   269
  0
VERTEX
  8
11TYP02-KEY1
  5
C77
 10
0.0
 20
0.0
 30
0.0
 70
   128
 71
    59
 72
   -66
 73
    64
  0
VERTEX
  8
11TYP02-KEY1
  5
C78
 10
0.0
 20
0.0
 30
0.0
 70
   128
 71
    63
 72
   -64
 73
    66
  0
VERTEX
  8
11TYP02-KEY1
  5
C79
 10
0.0
 20
0.0
 30
0.0
 70
   128
 71
    62
 72
    58
 73
   -60
  0
VERTEX
  8
11TYP02-KEY1
  5
C7A
 10
0.0
 20
0.0
 30
0.0
 70
   128
 71
    60
 72
    61
 73
   -62
  0
VERTEX
  8
11TYP02-KEY1
  5
C7B
 10
0.0
 20
0.0
 30
0.0
 70
   128
 71
    64
 72
   -63
 73
    53
  0
VERTEX
  8
11TYP02-KEY1
  5
C7C
 10
0.0
 20
0.0
 30
0.0
 70
   128
 71
    56
 72
   -53
 73
    63
  0
VERTEX
  8
11TYP02-KEY1
  5
C7D
 10
0.0
 20
0.0
 30
0.0
 70
   128
 71
    54
 72
    52
 73
   -57
  0
VERTEX
  8
11TYP02-KEY1
  5
C7E
 10
0.0
 20
0.0
 30
0.0
 70
   128
 71
    57
 72
    55
 73
   -54
  0
VERTEX
  8
11TYP02-KEY1
  5
C7F
 10
0.0
 20
0.0
 30
0.0
 70
   128
 71
    53
 72
   -56
 73
    50
  0
VERTEX
  8
11TYP02-KEY1
  5
C80
 10
0.0
 20
0.0
 30
0.0
 70
   128
 71
    50
 72
   271
 73
   -56
  0
VERTEX
  8
11TYP02-KEY1
  5
C81
 10
0.0
 20
0.0
 30
0.0
 70
   128
 71
    49
 72
  -272
 73
   273
  0
VERTEX
  8
11TYP02-KEY1
  5
C82
 10
0.0
 20
0.0
 30
0.0
 70
   128
 71
    51
 72
  -273
 73
   272
  0
VERTEX
  8
11TYP02-KEY1
  5
C83
 10
0.0
 20
0.0
 30
0.0
 70
   128
 71
    48
 72
   274
 73
   -40
  0
VERTEX
  8
11TYP02-KEY1
  5
C84
 10
0.0
 20
0.0
 30
0.0
 70
   128
 71
    40
 72
    43
 73
   -48
  0
VERTEX
  8
11TYP02-KEY1
  5
C85
 10
0.0
 20
0.0
 30
0.0
 70
   128
 71
    46
 72
  -275
 73
    47
  0
VERTEX
  8
11TYP02-KEY1
  5
C86
 10
0.0
 20
0.0
 30
0.0
 70
   128
 71
   276
 72
   -47
 73
   275
  0
VERTEX
  8
11TYP02-KEY1
  5
C87
 10
0.0
 20
0.0
 30
0.0
 70
   128
 71
    40
 72
   -43
 73
    38
  0
VERTEX
  8
11TYP02-KEY1
  5
C88
 10
0.0
 20
0.0
 30
0.0
 70
   128
 71
    45
 72
   -38
 73
    43
  0
VERTEX
  8
11TYP02-KEY1
  5
C89
 10
0.0
 20
0.0
 30
0.0
 70
   128
 71
    41
 72
    42
 73
  -277
  0
VERTEX
  8
11TYP02-KEY1
  5
C8A
 10
0.0
 20
0.0
 30
0.0
 70
   128
 71
   277
 72
    44
 73
   -41
  0
VERTEX
  8
11TYP02-KEY1
  5
C8B
 10
0.0
 20
0.0
 30
0.0
 70
   128
 71
    38
 72
   -45
 73
    33
  0
VERTEX
  8
11TYP02-KEY1
  5
C8C
 10
0.0
 20
0.0
 30
0.0
 70
   128
 71
    33
 72
    35
 73
   -45
  0
VERTEX
  8
11TYP02-KEY1
  5
C8D
 10
0.0
 20
0.0
 30
0.0
 70
   128
 71
    37
 72
  -278
 73
   279
  0
VERTEX
  8
11TYP02-KEY1
  5
C8E
 10
0.0
 20
0.0
 30
0.0
 70
   128
 71
    39
 72
  -279
 73
   278
  0
VERTEX
  8
11TYP02-KEY1
  5
C8F
 10
0.0
 20
0.0
 30
0.0
 70
   128
 71
    33
 72
   -35
 73
    27
  0
VERTEX
  8
11TYP02-KEY1
  5
C90
 10
0.0
 20
0.0
 30
0.0
 70
   128
 71
    29
 72
   -27
 73
    35
  0
VERTEX
  8
11TYP02-KEY1
  5
C91
 10
0.0
 20
0.0
 30
0.0
 70
   128
 71
    32
 72
    34
 73
  -280
  0
VERTEX
  8
11TYP02-KEY1
  5
C92
 10
0.0
 20
0.0
 30
0.0
 70
   128
 71
   280
 72
    36
 73
   -32
  0
VERTEX
  8
11TYP02-KEY1
  5
C93
 10
0.0
 20
0.0
 30
0.0
 70
   128
 71
    27
 72
   -29
 73
    31
  0
VERTEX
  8
11TYP02-KEY1
  5
C94
 10
0.0
 20
0.0
 30
0.0
 70
   128
 71
   282
 72
   -31
 73
    29
  0
VERTEX
  8
11TYP02-KEY1
  5
C95
 10
0.0
 20
0.0
 30
0.0
 70
   128
 71
   281
 72
    26
 73
   -28
  0
VERTEX
  8
11TYP02-KEY1
  5
C96
 10
0.0
 20
0.0
 30
0.0
 70
   128
 71
    28
 72
    30
 73
  -281
  0
VERTEX
  8
11TYP02-KEY1
  5
C97
 10
0.0
 20
0.0
 30
0.0
 70
   128
 71
    31
 72
  -282
 73
   283
  0
VERTEX
  8
11TYP02-KEY1
  5
C98
 10
0.0
 20
0.0
 30
0.0
 70
   128
 71
   283
 72
    25
 73
  -282
  0
VERTEX
  8
11TYP02-KEY1
  5
C99
 10
0.0
 20
0.0
 30
0.0
 70
   128
 71
    22
 72
   -23
 73
   284
  0
VERTEX
  8
11TYP02-KEY1
  5
C9A
 10
0.0
 20
0.0
 30
0.0
 70
   128
 71
    24
 72
  -284
 73
    23
  0
VERTEX
  8
11TYP02-KEY1
  5
C9B
 10
0.0
 20
0.0
 30
0.0
 70
   128
 71
   283
 72
   -25
 73
   285
  0
VERTEX
  8
11TYP02-KEY1
  5
C9C
 10
0.0
 20
0.0
 30
0.0
 70
   128
 71
    15
 72
  -285
 73
    25
  0
VERTEX
  8
11TYP02-KEY1
  5
C9D
 10
0.0
 20
0.0
 30
0.0
 70
   128
 71
   287
 72
    20
 73
  -286
  0
VERTEX
  8
11TYP02-KEY1
  5
C9E
 10
0.0
 20
0.0
 30
0.0
 70
   128
 71
   286
 72
    21
 73
  -287
  0
VERTEX
  8
11TYP02-KEY1
  5
C9F
 10
0.0
 20
0.0
 30
0.0
 70
   128
 71
   285
 72
   -15
 73
    19
  0
VERTEX
  8
11TYP02-KEY1
  5
CA0
 10
0.0
 20
0.0
 30
0.0
 70
   128
 71
    17
 72
   -19
 73
    15
  0
VERTEX
  8
11TYP02-KEY1
  5
CA1
 10
0.0
 20
0.0
 30
0.0
 70
   128
 71
    14
 72
    16
 73
   -13
  0
VERTEX
  8
11TYP02-KEY1
  5
CA2
 10
0.0
 20
0.0
 30
0.0
 70
   128
 71
    13
 72
    18
 73
   -14
  0
VERTEX
  8
11TYP02-KEY1
  5
CA3
 10
0.0
 20
0.0
 30
0.0
 70
   128
 71
    19
 72
   -17
 73
    10
  0
VERTEX
  8
11TYP02-KEY1
  5
CA4
 10
0.0
 20
0.0
 30
0.0
 70
   128
 71
   289
 72
   -10
 73
    17
  0
VERTEX
  8
11TYP02-KEY1
  5
CA5
 10
0.0
 20
0.0
 30
0.0
 70
   128
 71
    11
 72
   288
 73
    -9
  0
VERTEX
  8
11TYP02-KEY1
  5
CA6
 10
0.0
 20
0.0
 30
0.0
 70
   128
 71
     9
 72
    12
 73
   -11
  0
VERTEX
  8
11TYP02-KEY1
  5
CA7
 10
0.0
 20
0.0
 30
0.0
 70
   128
 71
    10
 72
  -289
 73
     6
  0
VERTEX
  8
11TYP02-KEY1
  5
CA8
 10
0.0
 20
0.0
 30
0.0
 70
   128
 71
     8
 72
    -6
 73
   289
  0
VERTEX
  8
11TYP02-KEY1
  5
CA9
 10
0.0
 20
0.0
 30
0.0
 70
   128
 71
   292
 72
   291
 73
  -290
  0
VERTEX
  8
11TYP02-KEY1
  5
CAA
 10
0.0
 20
0.0
 30
0.0
 70
   128
 71
   290
 72
     7
 73
  -292
  0
VERTEX
  8
11TYP02-KEY1
  5
CAB
 10
0.0
 20
0.0
 30
0.0
 70
   128
 71
     6
 72
    -8
 73
   295
  0
VERTEX
  8
11TYP02-KEY1
  5
CAC
 10
0.0
 20
0.0
 30
0.0
 70
   128
 71
   295
 72
   293
 73
    -8
  0
VERTEX
  8
11TYP02-KEY1
  5
CAD
 10
0.0
 20
0.0
 30
0.0
 70
   128
 71
     3
 72
    -4
 73
   294
  0
VERTEX
  8
11TYP02-KEY1
  5
CAE
 10
0.0
 20
0.0
 30
0.0
 70
   128
 71
     5
 72
  -294
 73
     4
  0
VERTEX
  8
11TYP02-KEY1
  5
CAF
 10
0.0
 20
0.0
 30
0.0
 70
   128
 71
   295
 72
  -293
 73
   216
  0
VERTEX
  8
11TYP02-KEY1
  5
CB0
 10
0.0
 20
0.0
 30
0.0
 70
   128
 71
   217
 72
  -216
 73
   293
  0
VERTEX
  8
11TYP02-KEY1
  5
CB1
 10
0.0
 20
0.0
 30
0.0
 70
   128
 71
   296
 72
     1
 73
  -297
  0
VERTEX
  8
11TYP02-KEY1
  5
CB2
 10
0.0
 20
0.0
 30
0.0
 70
   128
 71
   297
 72
     2
 73
  -296
  0
SEQEND
  8
11TYP02-KEY1
  5
CB3
  0
POLYLINE
  8
11TYP02-KEY2
  5
CB4
 66
     1
 10
0.0
 20
0.0
 30
0.0
 70
    64
 71
    77
 72
   118
1001
AVE_ENTITY_MATERIAL
1002
{
1000

1002
{
1071
        0
1070
     0
1070
     0
1002
{
1070
     0
1070
     0
1070
     0
1040
0.0
1002
}
1070
     0
1070
     0
1002
{
1002
}
1002
}
1002
{
1002
}
1002
{
1002
}
1011
0.0
1021
0.0
1031
0.0
1011
1.0
1021
0.0
1031
0.0
1011
0.0
1021
1.0
1031
0.0
1011
0.0
1021
0.0
1031
1.0
1002
}
1001
AVE_FINISH
1002
{
1070
     0
1005
D79
1002
}
  0
VERTEX
  8
11TYP02-KEY2
  5
CB5
 10
12.197
 20
13.187
 30
2.29
 70
   192
  0
VERTEX
  8
11TYP02-KEY2
  5
CB6
 10
11.744
 20
13.187
 30
2.347
 70
   192
  0
VERTEX
  8
11TYP02-KEY2
  5
CB7
 10
12.255
 20
12.615
 30
1.84
 70
   192
  0
VERTEX
  8
11TYP02-KEY2
  5
CB8
 10
11.744
 20
4.27
 30
2.347
 70
   192
  0
VERTEX
  8
11TYP02-KEY2
  5
CB9
 10
12.424
 20
3.127
 30
2.261
 70
   192
  0
VERTEX
  8
11TYP02-KEY2
  5
CBA
 10
12.424
 20
3.927
 30
2.261
 70
   192
  0
VERTEX
  8
11TYP02-KEY2
  5
CBB
 10
12.878
 20
3.127
 30
2.204
 70
   192
  0
VERTEX
  8
11TYP02-KEY2
  5
CBC
 10
10.383
 20
12.387
 30
2.519
 70
   192
  0
VERTEX
  8
11TYP02-KEY2
  5
CBD
 10
11.063
 20
11.872
 30
2.434
 70
   192
  0
VERTEX
  8
11TYP02-KEY2
  5
CBE
 10
11.063
 20
12.387
 30
2.434
 70
   192
  0
VERTEX
  8
11TYP02-KEY2
  5
CBF
 10
11.517
 20
11.872
 30
2.376
 70
   192
  0
VERTEX
  8
11TYP02-KEY2
  5
CC0
 10
12.937
 20
4.597
 30
1.754
 70
   192
  0
VERTEX
  8
11TYP02-KEY2
  5
CC1
 10
12.424
 20
5.511
 30
2.261
 70
   192
  0
VERTEX
  8
11TYP02-KEY2
  5
CC2
 10
12.255
 20
5.625
 30
1.84
 70
   192
  0
VERTEX
  8
11TYP02-KEY2
  5
CC3
 10
12.937
 20
5.625
 30
1.754
 70
   192
  0
VERTEX
  8
11TYP02-KEY2
  5
CC4
 10
12.878
 20
5.511
 30
2.204
 70
   192
  0
VERTEX
  8
11TYP02-KEY2
  5
CC5
 10
12.255
 20
4.597
 30
1.84
 70
   192
  0
VERTEX
  8
11TYP02-KEY2
  5
CC6
 10
12.424
 20
4.711
 30
2.261
 70
   192
  0
VERTEX
  8
11TYP02-KEY2
  5
CC7
 10
12.878
 20
4.711
 30
2.204
 70
   192
  0
VERTEX
  8
11TYP02-KEY2
  5
CC8
 10
12.937
 20
4.041
 30
1.754
 70
   192
  0
VERTEX
  8
11TYP02-KEY2
  5
CC9
 10
12.878
 20
3.927
 30
2.204
 70
   192
  0
VERTEX
  8
11TYP02-KEY2
  5
CCA
 10
12.255
 20
3.013
 30
1.84
 70
   192
  0
VERTEX
  8
11TYP02-KEY2
  5
CCB
 10
12.255
 20
4.041
 30
1.84
 70
   192
  0
VERTEX
  8
11TYP02-KEY2
  5
CCC
 10
12.255
 20
4.384
 30
1.84
 70
   192
  0
VERTEX
  8
11TYP02-KEY2
  5
CCD
 10
12.197
 20
4.27
 30
2.29
 70
   192
  0
VERTEX
  8
11TYP02-KEY2
  5
CCE
 10
12.197
 20
3.127
 30
2.29
 70
   192
  0
VERTEX
  8
11TYP02-KEY2
  5
CCF
 10
11.575
 20
4.384
 30
1.926
 70
   192
  0
VERTEX
  8
11TYP02-KEY2
  5
CD0
 10
11.517
 20
4.099
 30
2.376
 70
   192
  0
VERTEX
  8
11TYP02-KEY2
  5
CD1
 10
10.894
 20
3.013
 30
2.012
 70
   192
  0
VERTEX
  8
11TYP02-KEY2
  5
CD2
 10
11.063
 20
3.127
 30
2.434
 70
   192
  0
VERTEX
  8
11TYP02-KEY2
  5
CD3
 10
11.063
 20
4.099
 30
2.434
 70
   192
  0
VERTEX
  8
11TYP02-KEY2
  5
CD4
 10
10.894
 20
4.213
 30
2.012
 70
   192
  0
VERTEX
  8
11TYP02-KEY2
  5
CD5
 10
11.575
 20
4.213
 30
1.926
 70
   192
  0
VERTEX
  8
11TYP02-KEY2
  5
CD6
 10
12.937
 20
3.013
 30
1.754
 70
   192
  0
VERTEX
  8
11TYP02-KEY2
  5
CD7
 10
11.744
 20
3.127
 30
2.347
 70
   192
  0
VERTEX
  8
11TYP02-KEY2
  5
CD8
 10
11.575
 20
3.013
 30
1.926
 70
   192
  0
VERTEX
  8
11TYP02-KEY2
  5
CD9
 10
11.517
 20
3.127
 30
2.376
 70
   192
  0
VERTEX
  8
11TYP02-KEY2
  5
CDA
 10
10.894
 20
11.758
 30
2.012
 70
   192
  0
VERTEX
  8
11TYP02-KEY2
  5
CDB
 10
10.894
 20
12.273
 30
2.012
 70
   192
  0
VERTEX
  8
11TYP02-KEY2
  5
CDC
 10
10.214
 20
12.273
 30
2.098
 70
   192
  0
VERTEX
  8
11TYP02-KEY2
  5
CDD
 10
10.383
 20
13.187
 30
2.519
 70
   192
  0
VERTEX
  8
11TYP02-KEY2
  5
CDE
 10
10.214
 20
13.301
 30
2.098
 70
   192
  0
VERTEX
  8
11TYP02-KEY2
  5
CDF
 10
10.214
 20
11.93
 30
2.098
 70
   192
  0
VERTEX
  8
11TYP02-KEY2
  5
CE0
 10
10.155
 20
12.044
 30
2.548
 70
   192
  0
VERTEX
  8
11TYP02-KEY2
  5
CE1
 10
9.701
 20
13.187
 30
2.605
 70
   192
  0
VERTEX
  8
11TYP02-KEY2
  5
CE2
 10
10.155
 20
13.187
 30
2.548
 70
   192
  0
VERTEX
  8
11TYP02-KEY2
  5
CE3
 10
9.533
 20
13.301
 30
2.184
 70
   192
  0
VERTEX
  8
11TYP02-KEY2
  5
CE4
 10
12.937
 20
11.566
 30
1.754
 70
   192
  0
VERTEX
  8
11TYP02-KEY2
  5
CE5
 10
12.424
 20
11.473
 30
2.261
 70
   192
  0
VERTEX
  8
11TYP02-KEY2
  5
CE6
 10
12.878
 20
10.547
 30
2.204
 70
   192
  0
VERTEX
  8
11TYP02-KEY2
  5
CE7
 10
12.424
 20
10.547
 30
2.261
 70
   192
  0
VERTEX
  8
11TYP02-KEY2
  5
CE8
 10
12.255
 20
10.455
 30
1.84
 70
   192
  0
VERTEX
  8
11TYP02-KEY2
  5
CE9
 10
12.937
 20
10.455
 30
1.754
 70
   192
  0
VERTEX
  8
11TYP02-KEY2
  5
CEA
 10
12.255
 20
11.566
 30
1.84
 70
   192
  0
VERTEX
  8
11TYP02-KEY2
  5
CEB
 10
12.878
 20
11.473
 30
2.204
 70
   192
  0
VERTEX
  8
11TYP02-KEY2
  5
CEC
 10
11.744
 20
11.359
 30
2.347
 70
   192
  0
VERTEX
  8
11TYP02-KEY2
  5
CED
 10
11.744
 20
12.501
 30
2.347
 70
   192
  0
VERTEX
  8
11TYP02-KEY2
  5
CEE
 10
12.197
 20
11.359
 30
2.29
 70
   192
  0
VERTEX
  8
11TYP02-KEY2
  5
CEF
 10
11.575
 20
11.243
 30
1.926
 70
   192
  0
VERTEX
  8
11TYP02-KEY2
  5
CF0
 10
11.575
 20
12.615
 30
1.926
 70
   192
  0
VERTEX
  8
11TYP02-KEY2
  5
CF1
 10
12.255
 20
11.243
 30
1.84
 70
   192
  0
VERTEX
  8
11TYP02-KEY2
  5
CF2
 10
12.197
 20
12.501
 30
2.29
 70
   192
  0
VERTEX
  8
11TYP02-KEY2
  5
CF3
 10
12.878
 20
13.209
 30
2.204
 70
   192
  0
VERTEX
  8
11TYP02-KEY2
  5
CF4
 10
12.424
 20
13.209
 30
2.261
 70
   192
  0
VERTEX
  8
11TYP02-KEY2
  5
CF5
 10
12.937
 20
12.19
 30
1.754
 70
   192
  0
VERTEX
  8
11TYP02-KEY2
  5
CF6
 10
12.878
 20
12.283
 30
2.204
 70
   192
  0
VERTEX
  8
11TYP02-KEY2
  5
CF7
 10
12.255
 20
12.19
 30
1.84
 70
   192
  0
VERTEX
  8
11TYP02-KEY2
  5
CF8
 10
12.424
 20
12.283
 30
2.261
 70
   192
  0
VERTEX
  8
11TYP02-KEY2
  5
CF9
 10
12.937
 20
13.301
 30
1.754
 70
   192
  0
VERTEX
  8
11TYP02-KEY2
  5
CFA
 10
9.533
 20
11.93
 30
2.184
 70
   192
  0
VERTEX
  8
11TYP02-KEY2
  5
CFB
 10
9.701
 20
12.044
 30
2.605
 70
   192
  0
VERTEX
  8
11TYP02-KEY2
  5
CFC
 10
11.575
 20
11.758
 30
1.926
 70
   192
  0
VERTEX
  8
11TYP02-KEY2
  5
CFD
 10
11.517
 20
13.187
 30
2.376
 70
   192
  0
VERTEX
  8
11TYP02-KEY2
  5
CFE
 10
12.255
 20
13.301
 30
1.84
 70
   192
  0
VERTEX
  8
11TYP02-KEY2
  5
CFF
 10
11.575
 20
13.301
 30
1.926
 70
   192
  0
VERTEX
  8
11TYP02-KEY2
  5
D00
 10
12.197
 20
12.73
 30
2.29
 70
   192
  0
VERTEX
  8
11TYP02-KEY2
  5
D01
 10
11.744
 20
12.73
 30
2.347
 70
   192
  0
VERTEX
  8
11TYP02-KEY2
  5
D02
 10
0.0
 20
0.0
 30
0.0
 70
   128
 71
   -76
 72
    74
 73
     1
  0
VERTEX
  8
11TYP02-KEY2
  5
D03
 10
0.0
 20
0.0
 30
0.0
 70
   128
 71
    76
 72
     3
 73
   -74
  0
VERTEX
  8
11TYP02-KEY2
  5
D04
 10
0.0
 20
0.0
 30
0.0
 70
   128
 71
    -1
 72
    75
 73
     2
  0
VERTEX
  8
11TYP02-KEY2
  5
D05
 10
0.0
 20
0.0
 30
0.0
 70
   128
 71
     1
 72
    74
 73
   -75
  0
VERTEX
  8
11TYP02-KEY2
  5
D06
 10
0.0
 20
0.0
 30
0.0
 70
   128
 71
    -2
 72
    60
 73
    77
  0
VERTEX
  8
11TYP02-KEY2
  5
D07
 10
0.0
 20
0.0
 30
0.0
 70
   128
 71
     2
 72
    75
 73
   -60
  0
VERTEX
  8
11TYP02-KEY2
  5
D08
 10
0.0
 20
0.0
 30
0.0
 70
   128
 71
   -77
 72
     3
 73
    76
  0
VERTEX
  8
11TYP02-KEY2
  5
D09
 10
0.0
 20
0.0
 30
0.0
 70
   128
 71
    77
 72
    60
 73
    -3
  0
VERTEX
  8
11TYP02-KEY2
  5
D0A
 10
0.0
 20
0.0
 30
0.0
 70
   128
 71
     4
 72
   -35
 73
    25
  0
VERTEX
  8
11TYP02-KEY2
  5
D0B
 10
0.0
 20
0.0
 30
0.0
 70
   128
 71
    26
 72
   -25
 73
    35
  0
VERTEX
  8
11TYP02-KEY2
  5
D0C
 10
0.0
 20
0.0
 30
0.0
 70
   128
 71
    26
 72
    25
 73
    -4
  0
VERTEX
  8
11TYP02-KEY2
  5
D0D
 10
0.0
 20
0.0
 30
0.0
 70
   128
 71
     4
 72
    35
 73
   -26
  0
VERTEX
  8
11TYP02-KEY2
  5
D0E
 10
0.0
 20
0.0
 30
0.0
 70
   128
 71
     7
 72
   -21
 73
     5
  0
VERTEX
  8
11TYP02-KEY2
  5
D0F
 10
0.0
 20
0.0
 30
0.0
 70
   128
 71
     6
 72
    -5
 73
    21
  0
VERTEX
  8
11TYP02-KEY2
  5
D10
 10
0.0
 20
0.0
 30
0.0
 70
   128
 71
     6
 72
     5
 73
    -7
  0
VERTEX
  8
11TYP02-KEY2
  5
D11
 10
0.0
 20
0.0
 30
0.0
 70
   128
 71
     7
 72
    21
 73
    -6
  0
VERTEX
  8
11TYP02-KEY2
  5
D12
 10
0.0
 20
0.0
 30
0.0
 70
   128
 71
    19
 72
   -16
 73
    18
  0
VERTEX
  8
11TYP02-KEY2
  5
D13
 10
0.0
 20
0.0
 30
0.0
 70
   128
 71
    13
 72
   -18
 73
    16
  0
VERTEX
  8
11TYP02-KEY2
  5
D14
 10
0.0
 20
0.0
 30
0.0
 70
   128
 71
    13
 72
    18
 73
   -19
  0
VERTEX
  8
11TYP02-KEY2
  5
D15
 10
0.0
 20
0.0
 30
0.0
 70
   128
 71
    19
 72
    16
 73
   -13
  0
VERTEX
  8
11TYP02-KEY2
  5
D16
 10
0.0
 20
0.0
 30
0.0
 70
   128
 71
    11
 72
   -73
 73
   -10
  0
VERTEX
  8
11TYP02-KEY2
  5
D17
 10
0.0
 20
0.0
 30
0.0
 70
   128
 71
    73
 72
   -41
 73
   -10
  0
VERTEX
  8
11TYP02-KEY2
  5
D18
 10
0.0
 20
0.0
 30
0.0
 70
   128
 71
    41
 72
     8
 73
   -10
  0
VERTEX
  8
11TYP02-KEY2
  5
D19
 10
0.0
 20
0.0
 30
0.0
 70
   128
 71
     9
 72
   -11
 73
    10
  0
VERTEX
  8
11TYP02-KEY2
  5
D1A
 10
0.0
 20
0.0
 30
0.0
 70
   128
 71
    11
 72
   -73
 73
   -10
  0
VERTEX
  8
11TYP02-KEY2
  5
D1B
 10
0.0
 20
0.0
 30
0.0
 70
   128
 71
    73
 72
   -41
 73
   -10
  0
VERTEX
  8
11TYP02-KEY2
  5
D1C
 10
0.0
 20
0.0
 30
0.0
 70
   128
 71
    41
 72
     8
 73
   -10
  0
VERTEX
  8
11TYP02-KEY2
  5
D1D
 10
0.0
 20
0.0
 30
0.0
 70
   128
 71
     9
 72
   -11
 73
    10
  0
VERTEX
  8
11TYP02-KEY2
  5
D1E
 10
0.0
 20
0.0
 30
0.0
 70
   128
 71
    15
 72
   -16
 73
    12
  0
VERTEX
  8
11TYP02-KEY2
  5
D1F
 10
0.0
 20
0.0
 30
0.0
 70
   128
 71
    19
 72
   -12
 73
    16
  0
VERTEX
  8
11TYP02-KEY2
  5
D20
 10
0.0
 20
0.0
 30
0.0
 70
   128
 71
    18
 72
   -13
 73
    17
  0
VERTEX
  8
11TYP02-KEY2
  5
D21
 10
0.0
 20
0.0
 30
0.0
 70
   128
 71
    14
 72
   -17
 73
    13
  0
VERTEX
  8
11TYP02-KEY2
  5
D22
 10
0.0
 20
0.0
 30
0.0
 70
   128
 71
   -13
 72
    15
 73
    14
  0
VERTEX
  8
11TYP02-KEY2
  5
D23
 10
0.0
 20
0.0
 30
0.0
 70
   128
 71
    13
 72
    16
 73
   -15
  0
VERTEX
  8
11TYP02-KEY2
  5
D24
 10
0.0
 20
0.0
 30
0.0
 70
   128
 71
   -12
 72
    18
 73
    17
  0
VERTEX
  8
11TYP02-KEY2
  5
D25
 10
0.0
 20
0.0
 30
0.0
 70
   128
 71
    19
 72
   -18
 73
    12
  0
VERTEX
  8
11TYP02-KEY2
  5
D26
 10
0.0
 20
0.0
 30
0.0
 70
   128
 71
   -20
 72
     7
 73
    34
  0
VERTEX
  8
11TYP02-KEY2
  5
D27
 10
0.0
 20
0.0
 30
0.0
 70
   128
 71
    21
 72
    -7
 73
    20
  0
VERTEX
  8
11TYP02-KEY2
  5
D28
 10
0.0
 20
0.0
 30
0.0
 70
   128
 71
    -5
 72
    23
 73
    22
  0
VERTEX
  8
11TYP02-KEY2
  5
D29
 10
0.0
 20
0.0
 30
0.0
 70
   128
 71
     6
 72
   -23
 73
     5
  0
VERTEX
  8
11TYP02-KEY2
  5
D2A
 10
0.0
 20
0.0
 30
0.0
 70
   128
 71
    -6
 72
    20
 73
    23
  0
VERTEX
  8
11TYP02-KEY2
  5
D2B
 10
0.0
 20
0.0
 30
0.0
 70
   128
 71
     6
 72
    21
 73
   -20
  0
VERTEX
  8
11TYP02-KEY2
  5
D2C
 10
0.0
 20
0.0
 30
0.0
 70
   128
 71
    28
 72
   -31
 73
    37
  0
VERTEX
  8
11TYP02-KEY2
  5
D2D
 10
0.0
 20
0.0
 30
0.0
 70
   128
 71
    30
 72
   -37
 73
    31
  0
VERTEX
  8
11TYP02-KEY2
  5
D2E
 10
0.0
 20
0.0
 30
0.0
 70
   128
 71
    24
 72
   -25
 73
    22
  0
VERTEX
  8
11TYP02-KEY2
  5
D2F
 10
0.0
 20
0.0
 30
0.0
 70
   128
 71
    26
 72
   -22
 73
    25
  0
VERTEX
  8
11TYP02-KEY2
  5
D30
 10
0.0
 20
0.0
 30
0.0
 70
   128
 71
   -35
 72
    27
 73
    36
  0
VERTEX
  8
11TYP02-KEY2
  5
D31
 10
0.0
 20
0.0
 30
0.0
 70
   128
 71
    35
 72
     4
 73
   -27
  0
VERTEX
  8
11TYP02-KEY2
  5
D32
 10
0.0
 20
0.0
 30
0.0
 70
   128
 71
    33
 72
    28
 73
   -37
  0
VERTEX
  8
11TYP02-KEY2
  5
D33
 10
0.0
 20
0.0
 30
0.0
 70
   128
 71
    37
 72
    36
 73
   -33
  0
VERTEX
  8
11TYP02-KEY2
  5
D34
 10
0.0
 20
0.0
 30
0.0
 70
   128
 71
   -30
 72
    32
 73
    29
  0
VERTEX
  8
11TYP02-KEY2
  5
D35
 10
0.0
 20
0.0
 30
0.0
 70
   128
 71
    30
 72
    31
 73
   -32
  0
VERTEX
  8
11TYP02-KEY2
  5
D36
 10
0.0
 20
0.0
 30
0.0
 70
   128
 71
    -4
 72
    24
 73
    27
  0
VERTEX
  8
11TYP02-KEY2
  5
D37
 10
0.0
 20
0.0
 30
0.0
 70
   128
 71
     4
 72
    25
 73
   -24
  0
VERTEX
  8
11TYP02-KEY2
  5
D38
 10
0.0
 20
0.0
 30
0.0
 70
   128
 71
   -31
 72
    33
 73
    32
  0
VERTEX
  8
11TYP02-KEY2
  5
D39
 10
0.0
 20
0.0
 30
0.0
 70
   128
 71
    31
 72
    28
 73
   -33
  0
VERTEX
  8
11TYP02-KEY2
  5
D3A
 10
0.0
 20
0.0
 30
0.0
 70
   128
 71
   -34
 72
     5
 73
    22
  0
VERTEX
  8
11TYP02-KEY2
  5
D3B
 10
0.0
 20
0.0
 30
0.0
 70
   128
 71
     7
 72
    -5
 73
    34
  0
VERTEX
  8
11TYP02-KEY2
  5
D3C
 10
0.0
 20
0.0
 30
0.0
 70
   128
 71
   -22
 72
    35
 73
    36
  0
VERTEX
  8
11TYP02-KEY2
  5
D3D
 10
0.0
 20
0.0
 30
0.0
 70
   128
 71
    26
 72
   -35
 73
    22
  0
VERTEX
  8
11TYP02-KEY2
  5
D3E
 10
0.0
 20
0.0
 30
0.0
 70
   128
 71
   -36
 72
    30
 73
    29
  0
VERTEX
  8
11TYP02-KEY2
  5
D3F
 10
0.0
 20
0.0
 30
0.0
 70
   128
 71
    37
 72
   -30
 73
    36
  0
VERTEX
  8
11TYP02-KEY2
  5
D40
 10
0.0
 20
0.0
 30
0.0
 70
   128
 71
    38
 72
     9
 73
   -10
  0
VERTEX
  8
11TYP02-KEY2
  5
D41
 10
0.0
 20
0.0
 30
0.0
 70
   128
 71
    10
 72
    39
 73
   -38
  0
VERTEX
  8
11TYP02-KEY2
  5
D42
 10
0.0
 20
0.0
 30
0.0
 70
   128
 71
   -11
 72
    38
 73
    72
  0
VERTEX
  8
11TYP02-KEY2
  5
D43
 10
0.0
 20
0.0
 30
0.0
 70
   128
 71
     9
 72
   -38
 73
    11
  0
VERTEX
  8
11TYP02-KEY2
  5
D44
 10
0.0
 20
0.0
 30
0.0
 70
   128
 71
    10
 72
    -8
 73
    39
  0
VERTEX
  8
11TYP02-KEY2
  5
D45
 10
0.0
 20
0.0
 30
0.0
 70
   128
 71
    40
 72
   -39
 73
     8
  0
VERTEX
  8
11TYP02-KEY2
  5
D46
 10
0.0
 20
0.0
 30
0.0
 70
   128
 71
    -8
 72
    42
 73
    40
  0
VERTEX
  8
11TYP02-KEY2
  5
D47
 10
0.0
 20
0.0
 30
0.0
 70
   128
 71
     8
 72
    41
 73
   -42
  0
VERTEX
  8
11TYP02-KEY2
  5
D48
 10
0.0
 20
0.0
 30
0.0
 70
   128
 71
   -41
 72
    75
 73
    42
  0
VERTEX
  8
11TYP02-KEY2
  5
D49
 10
0.0
 20
0.0
 30
0.0
 70
   128
 71
    73
 72
   -75
 73
    41
  0
VERTEX
  8
11TYP02-KEY2
  5
D4A
 10
0.0
 20
0.0
 30
0.0
 70
   128
 71
   -42
 72
    44
 73
    43
  0
VERTEX
  8
11TYP02-KEY2
  5
D4B
 10
0.0
 20
0.0
 30
0.0
 70
   128
 71
    46
 72
   -44
 73
    42
  0
VERTEX
  8
11TYP02-KEY2
  5
D4C
 10
0.0
 20
0.0
 30
0.0
 70
   128
 71
   -46
 72
    47
 73
    45
  0
VERTEX
  8
11TYP02-KEY2
  5
D4D
 10
0.0
 20
0.0
 30
0.0
 70
   128
 71
    42
 72
   -47
 73
    46
  0
VERTEX
  8
11TYP02-KEY2
  5
D4E
 10
0.0
 20
0.0
 30
0.0
 70
   128
 71
   -48
 72
    49
 73
    55
  0
VERTEX
  8
11TYP02-KEY2
  5
D4F
 10
0.0
 20
0.0
 30
0.0
 70
   128
 71
    54
 72
   -49
 73
    48
  0
VERTEX
  8
11TYP02-KEY2
  5
D50
 10
0.0
 20
0.0
 30
0.0
 70
   128
 71
    51
 72
    50
 73
   -55
  0
VERTEX
  8
11TYP02-KEY2
  5
D51
 10
0.0
 20
0.0
 30
0.0
 70
   128
 71
    55
 72
    49
 73
   -51
  0
VERTEX
  8
11TYP02-KEY2
  5
D52
 10
0.0
 20
0.0
 30
0.0
 70
   128
 71
   -53
 72
    51
 73
    52
  0
VERTEX
  8
11TYP02-KEY2
  5
D53
 10
0.0
 20
0.0
 30
0.0
 70
   128
 71
    50
 72
   -51
 73
    53
  0
VERTEX
  8
11TYP02-KEY2
  5
D54
 10
0.0
 20
0.0
 30
0.0
 70
   128
 71
   -51
 72
    54
 73
    52
  0
VERTEX
  8
11TYP02-KEY2
  5
D55
 10
0.0
 20
0.0
 30
0.0
 70
   128
 71
    51
 72
    49
 73
   -54
  0
VERTEX
  8
11TYP02-KEY2
  5
D56
 10
0.0
 20
0.0
 30
0.0
 70
   128
 71
   -48
 72
    50
 73
    53
  0
VERTEX
  8
11TYP02-KEY2
  5
D57
 10
0.0
 20
0.0
 30
0.0
 70
   128
 71
    55
 72
   -50
 73
    48
  0
VERTEX
  8
11TYP02-KEY2
  5
D58
 10
0.0
 20
0.0
 30
0.0
 70
   128
 71
   -62
 72
    60
 73
    57
  0
VERTEX
  8
11TYP02-KEY2
  5
D59
 10
0.0
 20
0.0
 30
0.0
 70
   128
 71
     3
 72
   -60
 73
    62
  0
VERTEX
  8
11TYP02-KEY2
  5
D5A
 10
0.0
 20
0.0
 30
0.0
 70
   128
 71
    56
 72
    58
 73
   -62
  0
VERTEX
  8
11TYP02-KEY2
  5
D5B
 10
0.0
 20
0.0
 30
0.0
 70
   128
 71
    62
 72
    57
 73
   -56
  0
VERTEX
  8
11TYP02-KEY2
  5
D5C
 10
0.0
 20
0.0
 30
0.0
 70
   128
 71
   -58
 72
    59
 73
    61
  0
VERTEX
  8
11TYP02-KEY2
  5
D5D
 10
0.0
 20
0.0
 30
0.0
 70
   128
 71
    56
 72
   -59
 73
    58
  0
VERTEX
  8
11TYP02-KEY2
  5
D5E
 10
0.0
 20
0.0
 30
0.0
 70
   128
 71
   -56
 72
    60
 73
    59
  0
VERTEX
  8
11TYP02-KEY2
  5
D5F
 10
0.0
 20
0.0
 30
0.0
 70
   128
 71
    56
 72
    57
 73
   -60
  0
VERTEX
  8
11TYP02-KEY2
  5
D60
 10
0.0
 20
0.0
 30
0.0
 70
   128
 71
     3
 72
   -62
 73
    61
  0
VERTEX
  8
11TYP02-KEY2
  5
D61
 10
0.0
 20
0.0
 30
0.0
 70
   128
 71
    58
 72
   -61
 73
    62
  0
VERTEX
  8
11TYP02-KEY2
  5
D62
 10
0.0
 20
0.0
 30
0.0
 70
   128
 71
   -69
 72
    64
 73
    63
  0
VERTEX
  8
11TYP02-KEY2
  5
D63
 10
0.0
 20
0.0
 30
0.0
 70
   128
 71
    74
 72
   -64
 73
    69
  0
VERTEX
  8
11TYP02-KEY2
  5
D64
 10
0.0
 20
0.0
 30
0.0
 70
   128
 71
    68
 72
    66
 73
   -63
  0
VERTEX
  8
11TYP02-KEY2
  5
D65
 10
0.0
 20
0.0
 30
0.0
 70
   128
 71
    63
 72
    64
 73
   -68
  0
VERTEX
  8
11TYP02-KEY2
  5
D66
 10
0.0
 20
0.0
 30
0.0
 70
   128
 71
   -65
 72
    68
 73
    67
  0
VERTEX
  8
11TYP02-KEY2
  5
D67
 10
0.0
 20
0.0
 30
0.0
 70
   128
 71
    66
 72
   -68
 73
    65
  0
VERTEX
  8
11TYP02-KEY2
  5
D68
 10
0.0
 20
0.0
 30
0.0
 70
   128
 71
   -68
 72
    74
 73
    67
  0
VERTEX
  8
11TYP02-KEY2
  5
D69
 10
0.0
 20
0.0
 30
0.0
 70
   128
 71
    68
 72
    64
 73
   -74
  0
VERTEX
  8
11TYP02-KEY2
  5
D6A
 10
0.0
 20
0.0
 30
0.0
 70
   128
 71
   -69
 72
    66
 73
    65
  0
VERTEX
  8
11TYP02-KEY2
  5
D6B
 10
0.0
 20
0.0
 30
0.0
 70
   128
 71
    63
 72
   -66
 73
    69
  0
VERTEX
  8
11TYP02-KEY2
  5
D6C
 10
0.0
 20
0.0
 30
0.0
 70
   128
 71
    71
 72
    44
 73
   -46
  0
VERTEX
  8
11TYP02-KEY2
  5
D6D
 10
0.0
 20
0.0
 30
0.0
 70
   128
 71
    46
 72
    45
 73
   -71
  0
VERTEX
  8
11TYP02-KEY2
  5
D6E
 10
0.0
 20
0.0
 30
0.0
 70
   128
 71
   -43
 72
    71
 73
    70
  0
VERTEX
  8
11TYP02-KEY2
  5
D6F
 10
0.0
 20
0.0
 30
0.0
 70
   128
 71
    44
 72
   -71
 73
    43
  0
VERTEX
  8
11TYP02-KEY2
  5
D70
 10
0.0
 20
0.0
 30
0.0
 70
   128
 71
   -71
 72
    47
 73
    70
  0
VERTEX
  8
11TYP02-KEY2
  5
D71
 10
0.0
 20
0.0
 30
0.0
 70
   128
 71
    71
 72
    45
 73
   -47
  0
VERTEX
  8
11TYP02-KEY2
  5
D72
 10
0.0
 20
0.0
 30
0.0
 70
   128
 71
   -75
 72
    11
 73
    72
  0
VERTEX
  8
11TYP02-KEY2
  5
D73
 10
0.0
 20
0.0
 30
0.0
 70
   128
 71
    73
 72
   -11
 73
    75
  0
VERTEX
  8
11TYP02-KEY2
  5
D74
 10
0.0
 20
0.0
 30
0.0
 70
   128
 71
    75
 72
    74
 73
    -3
  0
VERTEX
  8
11TYP02-KEY2
  5
D75
 10
0.0
 20
0.0
 30
0.0
 70
   128
 71
     3
 72
    60
 73
   -75
  0
VERTEX
  8
11TYP02-KEY2
  5
D76
 10
0.0
 20
0.0
 30
0.0
 70
   128
 71
     1
 72
    -2
 73
    76
  0
VERTEX
  8
11TYP02-KEY2
  5
D77
 10
0.0
 20
0.0
 30
0.0
 70
   128
 71
    77
 72
   -76
 73
     2
  0
SEQEND
  8
11TYP02-KEY2
  5
D78
  0
POLYLINE
  8
11TYP02-KNOBS
  5
D92
 66
     1
 10
0.0
 20
0.0
 30
0.0
 70
    64
 71
   242
 72
   432
1001
AVE_ENTITY_MATERIAL
1002
{
1000

1002
{
1071
        0
1070
     0
1070
     0
1002
{
1070
     0
1070
     0
1070
     0
1040
0.0
1002
}
1070
     0
1070
     0
1002
{
1002
}
1002
}
1002
{
1002
}
1002
{
1002
}
1011
0.0
1021
0.0
1031
0.0
1011
1.0
1021
0.0
1031
0.0
1011
0.0
1021
1.0
1031
0.0
1011
0.0
1021
0.0
1031
1.0
1002
}
1001
AVE_FINISH
1002
{
1070
     0
1005
1036
1002
}
  0
VERTEX
  8
11TYP02-KNOBS
  5
D93
 10
2.543
 20
17.81
 30
3.233
 70
   192
  0
VERTEX
  8
11TYP02-KNOBS
  5
D94
 10
2.679
 20
17.547
 30
3.74
 70
   192
  0
VERTEX
  8
11TYP02-KNOBS
  5
D95
 10
2.408
 20
17.547
 30
3.775
 70
   192
  0
VERTEX
  8
11TYP02-KNOBS
  5
D96
 10
2.408
 20
17.023
 30
2.988
 70
   192
  0
VERTEX
  8
11TYP02-KNOBS
  5
D97
 10
2.671
 20
17.81
 30
3.18
 70
   192
  0
VERTEX
  8
11TYP02-KNOBS
  5
D98
 10
2.932
 20
17.547
 30
3.635
 70
   192
  0
VERTEX
  8
11TYP02-KNOBS
  5
D99
 10
2.679
 20
17.023
 30
3.74
 70
   192
  0
VERTEX
  8
11TYP02-KNOBS
  5
D9A
 10
2.476
 20
16.497
 30
2.98
 70
   192
  0
VERTEX
  8
11TYP02-KNOBS
  5
D9B
 10
2.476
 20
17.023
 30
2.98
 70
   192
  0
VERTEX
  8
11TYP02-KNOBS
  5
D9C
 10
3.151
 20
17.547
 30
3.468
 70
   192
  0
VERTEX
  8
11TYP02-KNOBS
  5
D9D
 10
3.151
 20
17.023
 30
3.468
 70
   192
  0
VERTEX
  8
11TYP02-KNOBS
  5
D9E
 10
2.539
 20
17.023
 30
2.953
 70
   192
  0
VERTEX
  8
11TYP02-KNOBS
  5
D9F
 10
2.932
 20
17.023
 30
3.635
 70
   192
  0
VERTEX
  8
11TYP02-KNOBS
  5
DA0
 10
2.594
 20
16.497
 30
2.911
 70
   192
  0
VERTEX
  8
11TYP02-KNOBS
  5
DA1
 10
2.539
 20
16.497
 30
2.953
 70
   192
  0
VERTEX
  8
11TYP02-KNOBS
  5
DA2
 10
2.779
 20
17.81
 30
3.097
 70
   192
  0
VERTEX
  8
11TYP02-KNOBS
  5
DA3
 10
3.317
 20
17.547
 30
3.251
 70
   192
  0
VERTEX
  8
11TYP02-KNOBS
  5
DA4
 10
3.317
 20
17.023
 30
3.251
 70
   192
  0
VERTEX
  8
11TYP02-KNOBS
  5
DA5
 10
2.594
 20
17.023
 30
2.911
 70
   192
  0
VERTEX
  8
11TYP02-KNOBS
  5
DA6
 10
3.422
 20
17.547
 30
2.998
 70
   192
  0
VERTEX
  8
11TYP02-KNOBS
  5
DA7
 10
2.863
 20
17.81
 30
2.988
 70
   192
  0
VERTEX
  8
11TYP02-KNOBS
  5
DA8
 10
2.915
 20
17.81
 30
2.862
 70
   192
  0
VERTEX
  8
11TYP02-KNOBS
  5
DA9
 10
3.422
 20
17.023
 30
2.998
 70
   192
  0
VERTEX
  8
11TYP02-KNOBS
  5
DAA
 10
2.635
 20
17.023
 30
2.857
 70
   192
  0
VERTEX
  8
11TYP02-KNOBS
  5
DAB
 10
2.635
 20
16.497
 30
2.857
 70
   192
  0
VERTEX
  8
11TYP02-KNOBS
  5
DAC
 10
2.661
 20
17.023
 30
2.794
 70
   192
  0
VERTEX
  8
11TYP02-KNOBS
  5
DAD
 10
3.458
 20
17.547
 30
2.725
 70
   192
  0
VERTEX
  8
11TYP02-KNOBS
  5
DAE
 10
2.671
 20
17.023
 30
2.725
 70
   192
  0
VERTEX
  8
11TYP02-KNOBS
  5
DAF
 10
2.671
 20
16.497
 30
2.725
 70
   192
  0
VERTEX
  8
11TYP02-KNOBS
  5
DB0
 10
2.661
 20
16.497
 30
2.794
 70
   192
  0
VERTEX
  8
11TYP02-KNOBS
  5
DB1
 10
2.932
 20
17.81
 30
2.725
 70
   192
  0
VERTEX
  8
11TYP02-KNOBS
  5
DB2
 10
3.422
 20
17.023
 30
2.454
 70
   192
  0
VERTEX
  8
11TYP02-KNOBS
  5
DB3
 10
3.458
 20
17.023
 30
2.725
 70
   192
  0
VERTEX
  8
11TYP02-KNOBS
  5
DB4
 10
2.915
 20
17.81
 30
2.59
 70
   192
  0
VERTEX
  8
11TYP02-KNOBS
  5
DB5
 10
3.317
 20
17.023
 30
2.201
 70
   192
  0
VERTEX
  8
11TYP02-KNOBS
  5
DB6
 10
3.422
 20
17.547
 30
2.454
 70
   192
  0
VERTEX
  8
11TYP02-KNOBS
  5
DB7
 10
2.661
 20
17.023
 30
2.658
 70
   192
  0
VERTEX
  8
11TYP02-KNOBS
  5
DB8
 10
2.661
 20
16.497
 30
2.658
 70
   192
  0
VERTEX
  8
11TYP02-KNOBS
  5
DB9
 10
2.635
 20
16.497
 30
2.594
 70
   192
  0
VERTEX
  8
11TYP02-KNOBS
  5
DBA
 10
3.317
 20
17.547
 30
2.201
 70
   192
  0
VERTEX
  8
11TYP02-KNOBS
  5
DBB
 10
2.863
 20
17.81
 30
2.464
 70
   192
  0
VERTEX
  8
11TYP02-KNOBS
  5
DBC
 10
2.635
 20
17.023
 30
2.594
 70
   192
  0
VERTEX
  8
11TYP02-KNOBS
  5
DBD
 10
2.594
 20
17.023
 30
2.54
 70
   192
  0
VERTEX
  8
11TYP02-KNOBS
  5
DBE
 10
3.151
 20
17.547
 30
1.984
 70
   192
  0
VERTEX
  8
11TYP02-KNOBS
  5
DBF
 10
2.779
 20
17.81
 30
2.354
 70
   192
  0
VERTEX
  8
11TYP02-KNOBS
  5
DC0
 10
3.151
 20
17.023
 30
1.984
 70
   192
  0
VERTEX
  8
11TYP02-KNOBS
  5
DC1
 10
2.539
 20
16.497
 30
2.498
 70
   192
  0
VERTEX
  8
11TYP02-KNOBS
  5
DC2
 10
2.594
 20
16.497
 30
2.54
 70
   192
  0
VERTEX
  8
11TYP02-KNOBS
  5
DC3
 10
2.671
 20
17.81
 30
2.27
 70
   192
  0
VERTEX
  8
11TYP02-KNOBS
  5
DC4
 10
2.679
 20
17.023
 30
1.711
 70
   192
  0
VERTEX
  8
11TYP02-KNOBS
  5
DC5
 10
2.932
 20
17.547
 30
1.817
 70
   192
  0
VERTEX
  8
11TYP02-KNOBS
  5
DC6
 10
2.932
 20
17.023
 30
1.817
 70
   192
  0
VERTEX
  8
11TYP02-KNOBS
  5
DC7
 10
2.476
 20
16.497
 30
2.472
 70
   192
  0
VERTEX
  8
11TYP02-KNOBS
  5
DC8
 10
2.539
 20
17.023
 30
2.498
 70
   192
  0
VERTEX
  8
11TYP02-KNOBS
  5
DC9
 10
2.543
 20
17.81
 30
2.219
 70
   192
  0
VERTEX
  8
11TYP02-KNOBS
  5
DCA
 10
2.679
 20
17.547
 30
1.711
 70
   192
  0
VERTEX
  8
11TYP02-KNOBS
  5
DCB
 10
2.408
 20
17.547
 30
1.675
 70
   192
  0
VERTEX
  8
11TYP02-KNOBS
  5
DCC
 10
2.408
 20
17.023
 30
1.675
 70
   192
  0
VERTEX
  8
11TYP02-KNOBS
  5
DCD
 10
2.476
 20
17.023
 30
2.472
 70
   192
  0
VERTEX
  8
11TYP02-KNOBS
  5
DCE
 10
2.408
 20
16.497
 30
2.464
 70
   192
  0
VERTEX
  8
11TYP02-KNOBS
  5
DCF
 10
2.272
 20
17.81
 30
2.219
 70
   192
  0
VERTEX
  8
11TYP02-KNOBS
  5
DD0
 10
2.408
 20
17.81
 30
2.201
 70
   192
  0
VERTEX
  8
11TYP02-KNOBS
  5
DD1
 10
2.408
 20
17.023
 30
2.464
 70
   192
  0
VERTEX
  8
11TYP02-KNOBS
  5
DD2
 10
2.135
 20
17.023
 30
1.711
 70
   192
  0
VERTEX
  8
11TYP02-KNOBS
  5
DD3
 10
2.339
 20
17.023
 30
2.472
 70
   192
  0
VERTEX
  8
11TYP02-KNOBS
  5
DD4
 10
2.339
 20
16.497
 30
2.472
 70
   192
  0
VERTEX
  8
11TYP02-KNOBS
  5
DD5
 10
2.135
 20
17.547
 30
1.711
 70
   192
  0
VERTEX
  8
11TYP02-KNOBS
  5
DD6
 10
1.882
 20
17.547
 30
1.817
 70
   192
  0
VERTEX
  8
11TYP02-KNOBS
  5
DD7
 10
2.277
 20
16.497
 30
2.498
 70
   192
  0
VERTEX
  8
11TYP02-KNOBS
  5
DD8
 10
2.277
 20
17.023
 30
2.498
 70
   192
  0
VERTEX
  8
11TYP02-KNOBS
  5
DD9
 10
2.145
 20
17.81
 30
2.27
 70
   192
  0
VERTEX
  8
11TYP02-KNOBS
  5
DDA
 10
2.037
 20
17.81
 30
2.354
 70
   192
  0
VERTEX
  8
11TYP02-KNOBS
  5
DDB
 10
1.665
 20
17.547
 30
1.984
 70
   192
  0
VERTEX
  8
11TYP02-KNOBS
  5
DDC
 10
1.665
 20
17.023
 30
1.984
 70
   192
  0
VERTEX
  8
11TYP02-KNOBS
  5
DDD
 10
1.882
 20
17.023
 30
1.817
 70
   192
  0
VERTEX
  8
11TYP02-KNOBS
  5
DDE
 10
2.222
 20
17.023
 30
2.54
 70
   192
  0
VERTEX
  8
11TYP02-KNOBS
  5
DDF
 10
2.222
 20
16.497
 30
2.54
 70
   192
  0
VERTEX
  8
11TYP02-KNOBS
  5
DE0
 10
1.498
 20
17.023
 30
2.201
 70
   192
  0
VERTEX
  8
11TYP02-KNOBS
  5
DE1
 10
2.181
 20
17.023
 30
2.594
 70
   192
  0
VERTEX
  8
11TYP02-KNOBS
  5
DE2
 10
2.181
 20
16.497
 30
2.594
 70
   192
  0
VERTEX
  8
11TYP02-KNOBS
  5
DE3
 10
1.9
 20
17.81
 30
2.59
 70
   192
  0
VERTEX
  8
11TYP02-KNOBS
  5
DE4
 10
1.498
 20
17.547
 30
2.201
 70
   192
  0
VERTEX
  8
11TYP02-KNOBS
  5
DE5
 10
1.953
 20
17.81
 30
2.464
 70
   192
  0
VERTEX
  8
11TYP02-KNOBS
  5
DE6
 10
2.155
 20
16.497
 30
2.658
 70
   192
  0
VERTEX
  8
11TYP02-KNOBS
  5
DE7
 10
1.882
 20
17.81
 30
2.725
 70
   192
  0
VERTEX
  8
11TYP02-KNOBS
  5
DE8
 10
1.394
 20
17.547
 30
2.454
 70
   192
  0
VERTEX
  8
11TYP02-KNOBS
  5
DE9
 10
1.358
 20
17.547
 30
2.725
 70
   192
  0
VERTEX
  8
11TYP02-KNOBS
  5
DEA
 10
1.394
 20
17.023
 30
2.454
 70
   192
  0
VERTEX
  8
11TYP02-KNOBS
  5
DEB
 10
2.155
 20
17.023
 30
2.658
 70
   192
  0
VERTEX
  8
11TYP02-KNOBS
  5
DEC
 10
2.145
 20
17.023
 30
2.725
 70
   192
  0
VERTEX
  8
11TYP02-KNOBS
  5
DED
 10
2.145
 20
16.497
 30
2.725
 70
   192
  0
VERTEX
  8
11TYP02-KNOBS
  5
DEE
 10
1.358
 20
17.023
 30
2.725
 70
   192
  0
VERTEX
  8
11TYP02-KNOBS
  5
DEF
 10
1.9
 20
17.81
 30
2.862
 70
   192
  0
VERTEX
  8
11TYP02-KNOBS
  5
DF0
 10
1.498
 20
17.547
 30
3.251
 70
   192
  0
VERTEX
  8
11TYP02-KNOBS
  5
DF1
 10
1.394
 20
17.023
 30
2.998
 70
   192
  0
VERTEX
  8
11TYP02-KNOBS
  5
DF2
 10
1.394
 20
17.547
 30
2.998
 70
   192
  0
VERTEX
  8
11TYP02-KNOBS
  5
DF3
 10
2.155
 20
17.023
 30
2.794
 70
   192
  0
VERTEX
  8
11TYP02-KNOBS
  5
DF4
 10
1.498
 20
17.023
 30
3.251
 70
   192
  0
VERTEX
  8
11TYP02-KNOBS
  5
DF5
 10
2.181
 20
16.497
 30
2.857
 70
   192
  0
VERTEX
  8
11TYP02-KNOBS
  5
DF6
 10
2.155
 20
16.497
 30
2.794
 70
   192
  0
VERTEX
  8
11TYP02-KNOBS
  5
DF7
 10
2.181
 20
17.023
 30
2.857
 70
   192
  0
VERTEX
  8
11TYP02-KNOBS
  5
DF8
 10
1.953
 20
17.81
 30
2.988
 70
   192
  0
VERTEX
  8
11TYP02-KNOBS
  5
DF9
 10
2.408
 20
17.81
 30
2.725
 70
   192
  0
VERTEX
  8
11TYP02-KNOBS
  5
DFA
 10
2.037
 20
17.81
 30
3.097
 70
   192
  0
VERTEX
  8
11TYP02-KNOBS
  5
DFB
 10
1.665
 20
17.547
 30
3.468
 70
   192
  0
VERTEX
  8
11TYP02-KNOBS
  5
DFC
 10
1.665
 20
17.023
 30
3.468
 70
   192
  0
VERTEX
  8
11TYP02-KNOBS
  5
DFD
 10
2.145
 20
17.81
 30
3.18
 70
   192
  0
VERTEX
  8
11TYP02-KNOBS
  5
DFE
 10
1.882
 20
17.547
 30
3.635
 70
   192
  0
VERTEX
  8
11TYP02-KNOBS
  5
DFF
 10
2.277
 20
17.023
 30
2.953
 70
   192
  0
VERTEX
  8
11TYP02-KNOBS
  5
E00
 10
2.277
 20
16.497
 30
2.953
 70
   192
  0
VERTEX
  8
11TYP02-KNOBS
  5
E01
 10
2.222
 20
16.497
 30
2.911
 70
   192
  0
VERTEX
  8
11TYP02-KNOBS
  5
E02
 10
2.222
 20
17.023
 30
2.911
 70
   192
  0
VERTEX
  8
11TYP02-KNOBS
  5
E03
 10
2.272
 20
17.81
 30
3.233
 70
   192
  0
VERTEX
  8
11TYP02-KNOBS
  5
E04
 10
2.135
 20
17.547
 30
3.74
 70
   192
  0
VERTEX
  8
11TYP02-KNOBS
  5
E05
 10
1.882
 20
17.023
 30
3.635
 70
   192
  0
VERTEX
  8
11TYP02-KNOBS
  5
E06
 10
2.339
 20
17.023
 30
2.98
 70
   192
  0
VERTEX
  8
11TYP02-KNOBS
  5
E07
 10
2.339
 20
16.497
 30
2.98
 70
   192
  0
VERTEX
  8
11TYP02-KNOBS
  5
E08
 10
2.408
 20
17.81
 30
3.251
 70
   192
  0
VERTEX
  8
11TYP02-KNOBS
  5
E09
 10
2.408
 20
17.023
 30
3.775
 70
   192
  0
VERTEX
  8
11TYP02-KNOBS
  5
E0A
 10
2.135
 20
17.023
 30
3.74
 70
   192
  0
VERTEX
  8
11TYP02-KNOBS
  5
E0B
 10
2.408
 20
16.497
 30
2.988
 70
   192
  0
VERTEX
  8
11TYP02-KNOBS
  5
E0C
 10
2.679
 20
-1.139
 30
3.74
 70
   192
  0
VERTEX
  8
11TYP02-KNOBS
  5
E0D
 10
2.476
 20
-0.615
 30
2.98
 70
   192
  0
VERTEX
  8
11TYP02-KNOBS
  5
E0E
 10
2.408
 20
-0.089
 30
2.988
 70
   192
  0
VERTEX
  8
11TYP02-KNOBS
  5
E0F
 10
2.408
 20
-0.615
 30
2.988
 70
   192
  0
VERTEX
  8
11TYP02-KNOBS
  5
E10
 10
2.476
 20
-0.089
 30
2.98
 70
   192
  0
VERTEX
  8
11TYP02-KNOBS
  5
E11
 10
2.671
 20
-1.402
 30
3.18
 70
   192
  0
VERTEX
  8
11TYP02-KNOBS
  5
E12
 10
2.543
 20
-1.402
 30
3.233
 70
   192
  0
VERTEX
  8
11TYP02-KNOBS
  5
E13
 10
2.679
 20
-0.615
 30
3.74
 70
   192
  0
VERTEX
  8
11TYP02-KNOBS
  5
E14
 10
2.932
 20
-1.139
 30
3.635
 70
   192
  0
VERTEX
  8
11TYP02-KNOBS
  5
E15
 10
2.779
 20
-1.402
 30
3.097
 70
   192
  0
VERTEX
  8
11TYP02-KNOBS
  5
E16
 10
2.932
 20
-0.615
 30
3.635
 70
   192
  0
VERTEX
  8
11TYP02-KNOBS
  5
E17
 10
2.539
 20
-0.615
 30
2.953
 70
   192
  0
VERTEX
  8
11TYP02-KNOBS
  5
E18
 10
2.594
 20
-0.089
 30
2.911
 70
   192
  0
VERTEX
  8
11TYP02-KNOBS
  5
E19
 10
2.539
 20
-0.089
 30
2.953
 70
   192
  0
VERTEX
  8
11TYP02-KNOBS
  5
E1A
 10
3.151
 20
-1.139
 30
3.468
 70
   192
  0
VERTEX
  8
11TYP02-KNOBS
  5
E1B
 10
3.151
 20
-0.615
 30
3.468
 70
   192
  0
VERTEX
  8
11TYP02-KNOBS
  5
E1C
 10
2.635
 20
-0.615
 30
2.857
 70
   192
  0
VERTEX
  8
11TYP02-KNOBS
  5
E1D
 10
2.594
 20
-0.615
 30
2.911
 70
   192
  0
VERTEX
  8
11TYP02-KNOBS
  5
E1E
 10
2.635
 20
-0.089
 30
2.857
 70
   192
  0
VERTEX
  8
11TYP02-KNOBS
  5
E1F
 10
3.317
 20
-1.139
 30
3.251
 70
   192
  0
VERTEX
  8
11TYP02-KNOBS
  5
E20
 10
2.915
 20
-1.402
 30
2.862
 70
   192
  0
VERTEX
  8
11TYP02-KNOBS
  5
E21
 10
2.863
 20
-1.402
 30
2.988
 70
   192
  0
VERTEX
  8
11TYP02-KNOBS
  5
E22
 10
3.422
 20
-0.615
 30
2.998
 70
   192
  0
VERTEX
  8
11TYP02-KNOBS
  5
E23
 10
3.317
 20
-0.615
 30
3.251
 70
   192
  0
VERTEX
  8
11TYP02-KNOBS
  5
E24
 10
2.661
 20
-0.089
 30
2.794
 70
   192
  0
VERTEX
  8
11TYP02-KNOBS
  5
E25
 10
2.932
 20
-1.402
 30
2.725
 70
   192
  0
VERTEX
  8
11TYP02-KNOBS
  5
E26
 10
3.422
 20
-1.139
 30
2.998
 70
   192
  0
VERTEX
  8
11TYP02-KNOBS
  5
E27
 10
3.458
 20
-1.139
 30
2.725
 70
   192
  0
VERTEX
  8
11TYP02-KNOBS
  5
E28
 10
2.671
 20
-0.615
 30
2.725
 70
   192
  0
VERTEX
  8
11TYP02-KNOBS
  5
E29
 10
2.661
 20
-0.615
 30
2.794
 70
   192
  0
VERTEX
  8
11TYP02-KNOBS
  5
E2A
 10
3.458
 20
-0.615
 30
2.725
 70
   192
  0
VERTEX
  8
11TYP02-KNOBS
  5
E2B
 10
2.671
 20
-0.089
 30
2.725
 70
   192
  0
VERTEX
  8
11TYP02-KNOBS
  5
E2C
 10
2.661
 20
-0.089
 30
2.658
 70
   192
  0
VERTEX
  8
11TYP02-KNOBS
  5
E2D
 10
2.408
 20
-1.402
 30
2.725
 70
   192
  0
VERTEX
  8
11TYP02-KNOBS
  5
E2E
 10
2.863
 20
-1.402
 30
2.464
 70
   192
  0
VERTEX
  8
11TYP02-KNOBS
  5
E2F
 10
2.915
 20
-1.402
 30
2.59
 70
   192
  0
VERTEX
  8
11TYP02-KNOBS
  5
E30
 10
3.422
 20
-0.615
 30
2.454
 70
   192
  0
VERTEX
  8
11TYP02-KNOBS
  5
E31
 10
3.422
 20
-1.139
 30
2.454
 70
   192
  0
VERTEX
  8
11TYP02-KNOBS
  5
E32
 10
2.635
 20
-0.615
 30
2.594
 70
   192
  0
VERTEX
  8
11TYP02-KNOBS
  5
E33
 10
2.635
 20
-0.089
 30
2.594
 70
   192
  0
VERTEX
  8
11TYP02-KNOBS
  5
E34
 10
2.661
 20
-0.615
 30
2.658
 70
   192
  0
VERTEX
  8
11TYP02-KNOBS
  5
E35
 10
3.317
 20
-1.139
 30
2.201
 70
   192
  0
VERTEX
  8
11TYP02-KNOBS
  5
E36
 10
3.317
 20
-0.615
 30
2.201
 70
   192
  0
VERTEX
  8
11TYP02-KNOBS
  5
E37
 10
3.151
 20
-1.139
 30
1.984
 70
   192
  0
VERTEX
  8
11TYP02-KNOBS
  5
E38
 10
2.594
 20
-0.089
 30
2.54
 70
   192
  0
VERTEX
  8
11TYP02-KNOBS
  5
E39
 10
2.932
 20
-1.139
 30
1.817
 70
   192
  0
VERTEX
  8
11TYP02-KNOBS
  5
E3A
 10
2.779
 20
-1.402
 30
2.354
 70
   192
  0
VERTEX
  8
11TYP02-KNOBS
  5
E3B
 10
2.671
 20
-1.402
 30
2.27
 70
   192
  0
VERTEX
  8
11TYP02-KNOBS
  5
E3C
 10
2.932
 20
-0.615
 30
1.817
 70
   192
  0
VERTEX
  8
11TYP02-KNOBS
  5
E3D
 10
3.151
 20
-0.615
 30
1.984
 70
   192
  0
VERTEX
  8
11TYP02-KNOBS
  5
E3E
 10
2.594
 20
-0.615
 30
2.54
 70
   192
  0
VERTEX
  8
11TYP02-KNOBS
  5
E3F
 10
2.539
 20
-0.089
 30
2.498
 70
   192
  0
VERTEX
  8
11TYP02-KNOBS
  5
E40
 10
2.679
 20
-1.139
 30
1.711
 70
   192
  0
VERTEX
  8
11TYP02-KNOBS
  5
E41
 10
2.543
 20
-1.402
 30
2.219
 70
   192
  0
VERTEX
  8
11TYP02-KNOBS
  5
E42
 10
2.539
 20
-0.615
 30
2.498
 70
   192
  0
VERTEX
  8
11TYP02-KNOBS
  5
E43
 10
2.476
 20
-0.089
 30
2.472
 70
   192
  0
VERTEX
  8
11TYP02-KNOBS
  5
E44
 10
2.408
 20
-0.615
 30
1.675
 70
   192
  0
VERTEX
  8
11TYP02-KNOBS
  5
E45
 10
2.679
 20
-0.615
 30
1.711
 70
   192
  0
VERTEX
  8
11TYP02-KNOBS
  5
E46
 10
2.476
 20
-0.615
 30
2.472
 70
   192
  0
VERTEX
  8
11TYP02-KNOBS
  5
E47
 10
2.408
 20
-0.089
 30
2.464
 70
   192
  0
VERTEX
  8
11TYP02-KNOBS
  5
E48
 10
2.408
 20
-1.139
 30
1.675
 70
   192
  0
VERTEX
  8
11TYP02-KNOBS
  5
E49
 10
2.408
 20
-1.402
 30
2.201
 70
   192
  0
VERTEX
  8
11TYP02-KNOBS
  5
E4A
 10
2.272
 20
-1.402
 30
2.219
 70
   192
  0
VERTEX
  8
11TYP02-KNOBS
  5
E4B
 10
2.135
 20
-1.139
 30
1.711
 70
   192
  0
VERTEX
  8
11TYP02-KNOBS
  5
E4C
 10
2.408
 20
-0.615
 30
2.464
 70
   192
  0
VERTEX
  8
11TYP02-KNOBS
  5
E4D
 10
2.339
 20
-0.089
 30
2.472
 70
   192
  0
VERTEX
  8
11TYP02-KNOBS
  5
E4E
 10
2.145
 20
-1.402
 30
2.27
 70
   192
  0
VERTEX
  8
11TYP02-KNOBS
  5
E4F
 10
2.339
 20
-0.615
 30
2.472
 70
   192
  0
VERTEX
  8
11TYP02-KNOBS
  5
E50
 10
2.135
 20
-0.615
 30
1.711
 70
   192
  0
VERTEX
  8
11TYP02-KNOBS
  5
E51
 10
2.277
 20
-0.615
 30
2.498
 70
   192
  0
VERTEX
  8
11TYP02-KNOBS
  5
E52
 10
1.882
 20
-1.139
 30
1.817
 70
   192
  0
VERTEX
  8
11TYP02-KNOBS
  5
E53
 10
2.222
 20
-0.615
 30
2.54
 70
   192
  0
VERTEX
  8
11TYP02-KNOBS
  5
E54
 10
1.882
 20
-0.615
 30
1.817
 70
   192
  0
VERTEX
  8
11TYP02-KNOBS
  5
E55
 10
2.277
 20
-0.089
 30
2.498
 70
   192
  0
VERTEX
  8
11TYP02-KNOBS
  5
E56
 10
1.665
 20
-1.139
 30
1.984
 70
   192
  0
VERTEX
  8
11TYP02-KNOBS
  5
E57
 10
1.953
 20
-1.402
 30
2.464
 70
   192
  0
VERTEX
  8
11TYP02-KNOBS
  5
E58
 10
2.037
 20
-1.402
 30
2.354
 70
   192
  0
VERTEX
  8
11TYP02-KNOBS
  5
E59
 10
1.665
 20
-0.615
 30
1.984
 70
   192
  0
VERTEX
  8
11TYP02-KNOBS
  5
E5A
 10
2.181
 20
-0.615
 30
2.594
 70
   192
  0
VERTEX
  8
11TYP02-KNOBS
  5
E5B
 10
2.222
 20
-0.089
 30
2.54
 70
   192
  0
VERTEX
  8
11TYP02-KNOBS
  5
E5C
 10
1.394
 20
-1.139
 30
2.454
 70
   192
  0
VERTEX
  8
11TYP02-KNOBS
  5
E5D
 10
1.498
 20
-1.139
 30
2.201
 70
   192
  0
VERTEX
  8
11TYP02-KNOBS
  5
E5E
 10
1.394
 20
-0.615
 30
2.454
 70
   192
  0
VERTEX
  8
11TYP02-KNOBS
  5
E5F
 10
1.498
 20
-0.615
 30
2.201
 70
   192
  0
VERTEX
  8
11TYP02-KNOBS
  5
E60
 10
2.181
 20
-0.089
 30
2.594
 70
   192
  0
VERTEX
  8
11TYP02-KNOBS
  5
E61
 10
2.155
 20
-0.615
 30
2.658
 70
   192
  0
VERTEX
  8
11TYP02-KNOBS
  5
E62
 10
2.155
 20
-0.089
 30
2.658
 70
   192
  0
VERTEX
  8
11TYP02-KNOBS
  5
E63
 10
1.882
 20
-1.402
 30
2.725
 70
   192
  0
VERTEX
  8
11TYP02-KNOBS
  5
E64
 10
1.9
 20
-1.402
 30
2.59
 70
   192
  0
VERTEX
  8
11TYP02-KNOBS
  5
E65
 10
2.145
 20
-0.615
 30
2.725
 70
   192
  0
VERTEX
  8
11TYP02-KNOBS
  5
E66
 10
1.358
 20
-1.139
 30
2.725
 70
   192
  0
VERTEX
  8
11TYP02-KNOBS
  5
E67
 10
1.358
 20
-0.615
 30
2.725
 70
   192
  0
VERTEX
  8
11TYP02-KNOBS
  5
E68
 10
1.394
 20
-0.615
 30
2.998
 70
   192
  0
VERTEX
  8
11TYP02-KNOBS
  5
E69
 10
2.155
 20
-0.615
 30
2.794
 70
   192
  0
VERTEX
  8
11TYP02-KNOBS
  5
E6A
 10
2.145
 20
-0.089
 30
2.725
 70
   192
  0
VERTEX
  8
11TYP02-KNOBS
  5
E6B
 10
2.155
 20
-0.089
 30
2.794
 70
   192
  0
VERTEX
  8
11TYP02-KNOBS
  5
E6C
 10
1.9
 20
-1.402
 30
2.862
 70
   192
  0
VERTEX
  8
11TYP02-KNOBS
  5
E6D
 10
1.953
 20
-1.402
 30
2.988
 70
   192
  0
VERTEX
  8
11TYP02-KNOBS
  5
E6E
 10
1.498
 20
-0.615
 30
3.251
 70
   192
  0
VERTEX
  8
11TYP02-KNOBS
  5
E6F
 10
1.394
 20
-1.139
 30
2.998
 70
   192
  0
VERTEX
  8
11TYP02-KNOBS
  5
E70
 10
2.181
 20
-0.089
 30
2.857
 70
   192
  0
VERTEX
  8
11TYP02-KNOBS
  5
E71
 10
1.498
 20
-1.139
 30
3.251
 70
   192
  0
VERTEX
  8
11TYP02-KNOBS
  5
E72
 10
2.222
 20
-0.615
 30
2.911
 70
   192
  0
VERTEX
  8
11TYP02-KNOBS
  5
E73
 10
2.222
 20
-0.089
 30
2.911
 70
   192
  0
VERTEX
  8
11TYP02-KNOBS
  5
E74
 10
2.181
 20
-0.615
 30
2.857
 70
   192
  0
VERTEX
  8
11TYP02-KNOBS
  5
E75
 10
1.665
 20
-1.139
 30
3.468
 70
   192
  0
VERTEX
  8
11TYP02-KNOBS
  5
E76
 10
2.037
 20
-1.402
 30
3.097
 70
   192
  0
VERTEX
  8
11TYP02-KNOBS
  5
E77
 10
1.665
 20
-0.615
 30
3.468
 70
   192
  0
VERTEX
  8
11TYP02-KNOBS
  5
E78
 10
2.277
 20
-0.089
 30
2.953
 70
   192
  0
VERTEX
  8
11TYP02-KNOBS
  5
E79
 10
2.272
 20
-1.402
 30
3.233
 70
   192
  0
VERTEX
  8
11TYP02-KNOBS
  5
E7A
 10
2.145
 20
-1.402
 30
3.18
 70
   192
  0
VERTEX
  8
11TYP02-KNOBS
  5
E7B
 10
1.882
 20
-1.139
 30
3.635
 70
   192
  0
VERTEX
  8
11TYP02-KNOBS
  5
E7C
 10
1.882
 20
-0.615
 30
3.635
 70
   192
  0
VERTEX
  8
11TYP02-KNOBS
  5
E7D
 10
2.277
 20
-0.615
 30
2.953
 70
   192
  0
VERTEX
  8
11TYP02-KNOBS
  5
E7E
 10
2.339
 20
-0.089
 30
2.98
 70
   192
  0
VERTEX
  8
11TYP02-KNOBS
  5
E7F
 10
2.135
 20
-1.139
 30
3.74
 70
   192
  0
VERTEX
  8
11TYP02-KNOBS
  5
E80
 10
2.408
 20
-1.402
 30
3.251
 70
   192
  0
VERTEX
  8
11TYP02-KNOBS
  5
E81
 10
2.408
 20
-1.139
 30
3.775
 70
   192
  0
VERTEX
  8
11TYP02-KNOBS
  5
E82
 10
2.408
 20
-0.615
 30
3.775
 70
   192
  0
VERTEX
  8
11TYP02-KNOBS
  5
E83
 10
2.135
 20
-0.615
 30
3.74
 70
   192
  0
VERTEX
  8
11TYP02-KNOBS
  5
E84
 10
2.339
 20
-0.615
 30
2.98
 70
   192
  0
VERTEX
  8
11TYP02-KNOBS
  5
E85
 10
0.0
 20
0.0
 30
0.0
 70
   128
 71
     1
 72
   103
 73
   118
  0
VERTEX
  8
11TYP02-KNOBS
  5
E86
 10
0.0
 20
0.0
 30
0.0
 70
   128
 71
    -2
 72
   118
 73
     3
  0
VERTEX
  8
11TYP02-KNOBS
  5
E87
 10
0.0
 20
0.0
 30
0.0
 70
   128
 71
     2
 72
     1
 73
  -118
  0
VERTEX
  8
11TYP02-KNOBS
  5
E88
 10
0.0
 20
0.0
 30
0.0
 70
   128
 71
     3
 72
   119
 73
    -7
  0
VERTEX
  8
11TYP02-KNOBS
  5
E89
 10
0.0
 20
0.0
 30
0.0
 70
   128
 71
     7
 72
     2
 73
    -3
  0
VERTEX
  8
11TYP02-KNOBS
  5
E8A
 10
0.0
 20
0.0
 30
0.0
 70
   128
 71
   119
 72
     4
 73
    -9
  0
VERTEX
  8
11TYP02-KNOBS
  5
E8B
 10
0.0
 20
0.0
 30
0.0
 70
   128
 71
     9
 72
     7
 73
  -119
  0
VERTEX
  8
11TYP02-KNOBS
  5
E8C
 10
0.0
 20
0.0
 30
0.0
 70
   128
 71
     4
 72
   121
 73
    -8
  0
VERTEX
  8
11TYP02-KNOBS
  5
E8D
 10
0.0
 20
0.0
 30
0.0
 70
   128
 71
     8
 72
     9
 73
    -4
  0
VERTEX
  8
11TYP02-KNOBS
  5
E8E
 10
0.0
 20
0.0
 30
0.0
 70
   128
 71
     5
 72
   103
 73
     1
  0
VERTEX
  8
11TYP02-KNOBS
  5
E8F
 10
0.0
 20
0.0
 30
0.0
 70
   128
 71
    -6
 72
     1
 73
     2
  0
VERTEX
  8
11TYP02-KNOBS
  5
E90
 10
0.0
 20
0.0
 30
0.0
 70
   128
 71
     6
 72
     5
 73
    -1
  0
VERTEX
  8
11TYP02-KNOBS
  5
E91
 10
0.0
 20
0.0
 30
0.0
 70
   128
 71
     2
 72
     7
 73
   -13
  0
VERTEX
  8
11TYP02-KNOBS
  5
E92
 10
0.0
 20
0.0
 30
0.0
 70
   128
 71
    13
 72
     6
 73
    -2
  0
VERTEX
  8
11TYP02-KNOBS
  5
E93
 10
0.0
 20
0.0
 30
0.0
 70
   128
 71
     7
 72
     9
 73
   -12
  0
VERTEX
  8
11TYP02-KNOBS
  5
E94
 10
0.0
 20
0.0
 30
0.0
 70
   128
 71
    12
 72
    13
 73
    -7
  0
VERTEX
  8
11TYP02-KNOBS
  5
E95
 10
0.0
 20
0.0
 30
0.0
 70
   128
 71
     9
 72
     8
 73
   -15
  0
VERTEX
  8
11TYP02-KNOBS
  5
E96
 10
0.0
 20
0.0
 30
0.0
 70
   128
 71
    15
 72
    12
 73
    -9
  0
VERTEX
  8
11TYP02-KNOBS
  5
E97
 10
0.0
 20
0.0
 30
0.0
 70
   128
 71
    16
 72
   103
 73
     5
  0
VERTEX
  8
11TYP02-KNOBS
  5
E98
 10
0.0
 20
0.0
 30
0.0
 70
   128
 71
   -16
 72
     6
 73
    10
  0
VERTEX
  8
11TYP02-KNOBS
  5
E99
 10
0.0
 20
0.0
 30
0.0
 70
   128
 71
    16
 72
     5
 73
    -6
  0
VERTEX
  8
11TYP02-KNOBS
  5
E9A
 10
0.0
 20
0.0
 30
0.0
 70
   128
 71
     6
 72
    13
 73
   -11
  0
VERTEX
  8
11TYP02-KNOBS
  5
E9B
 10
0.0
 20
0.0
 30
0.0
 70
   128
 71
    11
 72
    10
 73
    -6
  0
VERTEX
  8
11TYP02-KNOBS
  5
E9C
 10
0.0
 20
0.0
 30
0.0
 70
   128
 71
    13
 72
    12
 73
   -19
  0
VERTEX
  8
11TYP02-KNOBS
  5
E9D
 10
0.0
 20
0.0
 30
0.0
 70
   128
 71
    19
 72
    11
 73
   -13
  0
VERTEX
  8
11TYP02-KNOBS
  5
E9E
 10
0.0
 20
0.0
 30
0.0
 70
   128
 71
    12
 72
    15
 73
   -14
  0
VERTEX
  8
11TYP02-KNOBS
  5
E9F
 10
0.0
 20
0.0
 30
0.0
 70
   128
 71
    14
 72
    19
 73
   -12
  0
VERTEX
  8
11TYP02-KNOBS
  5
EA0
 10
0.0
 20
0.0
 30
0.0
 70
   128
 71
    21
 72
   103
 73
    16
  0
VERTEX
  8
11TYP02-KNOBS
  5
EA1
 10
0.0
 20
0.0
 30
0.0
 70
   128
 71
   -21
 72
    10
 73
    17
  0
VERTEX
  8
11TYP02-KNOBS
  5
EA2
 10
0.0
 20
0.0
 30
0.0
 70
   128
 71
    21
 72
    16
 73
   -10
  0
VERTEX
  8
11TYP02-KNOBS
  5
EA3
 10
0.0
 20
0.0
 30
0.0
 70
   128
 71
    10
 72
    11
 73
   -18
  0
VERTEX
  8
11TYP02-KNOBS
  5
EA4
 10
0.0
 20
0.0
 30
0.0
 70
   128
 71
    18
 72
    17
 73
   -10
  0
VERTEX
  8
11TYP02-KNOBS
  5
EA5
 10
0.0
 20
0.0
 30
0.0
 70
   128
 71
    11
 72
    19
 73
   -24
  0
VERTEX
  8
11TYP02-KNOBS
  5
EA6
 10
0.0
 20
0.0
 30
0.0
 70
   128
 71
    24
 72
    18
 73
   -11
  0
VERTEX
  8
11TYP02-KNOBS
  5
EA7
 10
0.0
 20
0.0
 30
0.0
 70
   128
 71
    19
 72
    14
 73
   -25
  0
VERTEX
  8
11TYP02-KNOBS
  5
EA8
 10
0.0
 20
0.0
 30
0.0
 70
   128
 71
    25
 72
    24
 73
   -19
  0
VERTEX
  8
11TYP02-KNOBS
  5
EA9
 10
0.0
 20
0.0
 30
0.0
 70
   128
 71
    22
 72
   103
 73
    21
  0
VERTEX
  8
11TYP02-KNOBS
  5
EAA
 10
0.0
 20
0.0
 30
0.0
 70
   128
 71
   -22
 72
    17
 73
    20
  0
VERTEX
  8
11TYP02-KNOBS
  5
EAB
 10
0.0
 20
0.0
 30
0.0
 70
   128
 71
    22
 72
    21
 73
   -17
  0
VERTEX
  8
11TYP02-KNOBS
  5
EAC
 10
0.0
 20
0.0
 30
0.0
 70
   128
 71
    17
 72
    18
 73
   -23
  0
VERTEX
  8
11TYP02-KNOBS
  5
EAD
 10
0.0
 20
0.0
 30
0.0
 70
   128
 71
    23
 72
    20
 73
   -17
  0
VERTEX
  8
11TYP02-KNOBS
  5
EAE
 10
0.0
 20
0.0
 30
0.0
 70
   128
 71
    18
 72
    24
 73
   -26
  0
VERTEX
  8
11TYP02-KNOBS
  5
EAF
 10
0.0
 20
0.0
 30
0.0
 70
   128
 71
    26
 72
    23
 73
   -18
  0
VERTEX
  8
11TYP02-KNOBS
  5
EB0
 10
0.0
 20
0.0
 30
0.0
 70
   128
 71
    24
 72
    25
 73
   -30
  0
VERTEX
  8
11TYP02-KNOBS
  5
EB1
 10
0.0
 20
0.0
 30
0.0
 70
   128
 71
    30
 72
    26
 73
   -24
  0
VERTEX
  8
11TYP02-KNOBS
  5
EB2
 10
0.0
 20
0.0
 30
0.0
 70
   128
 71
    31
 72
   103
 73
    22
  0
VERTEX
  8
11TYP02-KNOBS
  5
EB3
 10
0.0
 20
0.0
 30
0.0
 70
   128
 71
   -27
 72
    22
 73
    20
  0
VERTEX
  8
11TYP02-KNOBS
  5
EB4
 10
0.0
 20
0.0
 30
0.0
 70
   128
 71
    27
 72
    31
 73
   -22
  0
VERTEX
  8
11TYP02-KNOBS
  5
EB5
 10
0.0
 20
0.0
 30
0.0
 70
   128
 71
    20
 72
    23
 73
   -33
  0
VERTEX
  8
11TYP02-KNOBS
  5
EB6
 10
0.0
 20
0.0
 30
0.0
 70
   128
 71
    33
 72
    27
 73
   -20
  0
VERTEX
  8
11TYP02-KNOBS
  5
EB7
 10
0.0
 20
0.0
 30
0.0
 70
   128
 71
    23
 72
    26
 73
   -28
  0
VERTEX
  8
11TYP02-KNOBS
  5
EB8
 10
0.0
 20
0.0
 30
0.0
 70
   128
 71
    28
 72
    33
 73
   -23
  0
VERTEX
  8
11TYP02-KNOBS
  5
EB9
 10
0.0
 20
0.0
 30
0.0
 70
   128
 71
    26
 72
    30
 73
   -29
  0
VERTEX
  8
11TYP02-KNOBS
  5
EBA
 10
0.0
 20
0.0
 30
0.0
 70
   128
 71
    29
 72
    28
 73
   -26
  0
VERTEX
  8
11TYP02-KNOBS
  5
EBB
 10
0.0
 20
0.0
 30
0.0
 70
   128
 71
    34
 72
   103
 73
    31
  0
VERTEX
  8
11TYP02-KNOBS
  5
EBC
 10
0.0
 20
0.0
 30
0.0
 70
   128
 71
   -34
 72
    27
 73
    36
  0
VERTEX
  8
11TYP02-KNOBS
  5
EBD
 10
0.0
 20
0.0
 30
0.0
 70
   128
 71
    34
 72
    31
 73
   -27
  0
VERTEX
  8
11TYP02-KNOBS
  5
EBE
 10
0.0
 20
0.0
 30
0.0
 70
   128
 71
    27
 72
    33
 73
   -32
  0
VERTEX
  8
11TYP02-KNOBS
  5
EBF
 10
0.0
 20
0.0
 30
0.0
 70
   128
 71
    32
 72
    36
 73
   -27
  0
VERTEX
  8
11TYP02-KNOBS
  5
EC0
 10
0.0
 20
0.0
 30
0.0
 70
   128
 71
    33
 72
    28
 73
   -37
  0
VERTEX
  8
11TYP02-KNOBS
  5
EC1
 10
0.0
 20
0.0
 30
0.0
 70
   128
 71
    37
 72
    32
 73
   -33
  0
VERTEX
  8
11TYP02-KNOBS
  5
EC2
 10
0.0
 20
0.0
 30
0.0
 70
   128
 71
    28
 72
    29
 73
   -38
  0
VERTEX
  8
11TYP02-KNOBS
  5
EC3
 10
0.0
 20
0.0
 30
0.0
 70
   128
 71
    38
 72
    37
 73
   -28
  0
VERTEX
  8
11TYP02-KNOBS
  5
EC4
 10
0.0
 20
0.0
 30
0.0
 70
   128
 71
    41
 72
   103
 73
    34
  0
VERTEX
  8
11TYP02-KNOBS
  5
EC5
 10
0.0
 20
0.0
 30
0.0
 70
   128
 71
   -40
 72
    34
 73
    36
  0
VERTEX
  8
11TYP02-KNOBS
  5
EC6
 10
0.0
 20
0.0
 30
0.0
 70
   128
 71
    40
 72
    41
 73
   -34
  0
VERTEX
  8
11TYP02-KNOBS
  5
EC7
 10
0.0
 20
0.0
 30
0.0
 70
   128
 71
    36
 72
    32
 73
   -35
  0
VERTEX
  8
11TYP02-KNOBS
  5
EC8
 10
0.0
 20
0.0
 30
0.0
 70
   128
 71
    35
 72
    40
 73
   -36
  0
VERTEX
  8
11TYP02-KNOBS
  5
EC9
 10
0.0
 20
0.0
 30
0.0
 70
   128
 71
    32
 72
    37
 73
   -42
  0
VERTEX
  8
11TYP02-KNOBS
  5
ECA
 10
0.0
 20
0.0
 30
0.0
 70
   128
 71
    42
 72
    35
 73
   -32
  0
VERTEX
  8
11TYP02-KNOBS
  5
ECB
 10
0.0
 20
0.0
 30
0.0
 70
   128
 71
    37
 72
    38
 73
   -39
  0
VERTEX
  8
11TYP02-KNOBS
  5
ECC
 10
0.0
 20
0.0
 30
0.0
 70
   128
 71
    39
 72
    42
 73
   -37
  0
VERTEX
  8
11TYP02-KNOBS
  5
ECD
 10
0.0
 20
0.0
 30
0.0
 70
   128
 71
    45
 72
   103
 73
    41
  0
VERTEX
  8
11TYP02-KNOBS
  5
ECE
 10
0.0
 20
0.0
 30
0.0
 70
   128
 71
   -44
 72
    41
 73
    40
  0
VERTEX
  8
11TYP02-KNOBS
  5
ECF
 10
0.0
 20
0.0
 30
0.0
 70
   128
 71
    44
 72
    45
 73
   -41
  0
VERTEX
  8
11TYP02-KNOBS
  5
ED0
 10
0.0
 20
0.0
 30
0.0
 70
   128
 71
    40
 72
    35
 73
   -46
  0
VERTEX
  8
11TYP02-KNOBS
  5
ED1
 10
0.0
 20
0.0
 30
0.0
 70
   128
 71
    46
 72
    44
 73
   -40
  0
VERTEX
  8
11TYP02-KNOBS
  5
ED2
 10
0.0
 20
0.0
 30
0.0
 70
   128
 71
    35
 72
    42
 73
   -43
  0
VERTEX
  8
11TYP02-KNOBS
  5
ED3
 10
0.0
 20
0.0
 30
0.0
 70
   128
 71
    43
 72
    46
 73
   -35
  0
VERTEX
  8
11TYP02-KNOBS
  5
ED4
 10
0.0
 20
0.0
 30
0.0
 70
   128
 71
    42
 72
    39
 73
   -48
  0
VERTEX
  8
11TYP02-KNOBS
  5
ED5
 10
0.0
 20
0.0
 30
0.0
 70
   128
 71
    48
 72
    43
 73
   -42
  0
VERTEX
  8
11TYP02-KNOBS
  5
ED6
 10
0.0
 20
0.0
 30
0.0
 70
   128
 71
    49
 72
   103
 73
    45
  0
VERTEX
  8
11TYP02-KNOBS
  5
ED7
 10
0.0
 20
0.0
 30
0.0
 70
   128
 71
   -49
 72
    44
 73
    51
  0
VERTEX
  8
11TYP02-KNOBS
  5
ED8
 10
0.0
 20
0.0
 30
0.0
 70
   128
 71
    49
 72
    45
 73
   -44
  0
VERTEX
  8
11TYP02-KNOBS
  5
ED9
 10
0.0
 20
0.0
 30
0.0
 70
   128
 71
    44
 72
    46
 73
   -52
  0
VERTEX
  8
11TYP02-KNOBS
  5
EDA
 10
0.0
 20
0.0
 30
0.0
 70
   128
 71
    52
 72
    51
 73
   -44
  0
VERTEX
  8
11TYP02-KNOBS
  5
EDB
 10
0.0
 20
0.0
 30
0.0
 70
   128
 71
    46
 72
    43
 73
   -54
  0
VERTEX
  8
11TYP02-KNOBS
  5
EDC
 10
0.0
 20
0.0
 30
0.0
 70
   128
 71
    54
 72
    52
 73
   -46
  0
VERTEX
  8
11TYP02-KNOBS
  5
EDD
 10
0.0
 20
0.0
 30
0.0
 70
   128
 71
    43
 72
    48
 73
   -47
  0
VERTEX
  8
11TYP02-KNOBS
  5
EDE
 10
0.0
 20
0.0
 30
0.0
 70
   128
 71
    47
 72
    54
 73
   -43
  0
VERTEX
  8
11TYP02-KNOBS
  5
EDF
 10
0.0
 20
0.0
 30
0.0
 70
   128
 71
    55
 72
   103
 73
    49
  0
VERTEX
  8
11TYP02-KNOBS
  5
EE0
 10
0.0
 20
0.0
 30
0.0
 70
   128
 71
   -56
 72
    49
 73
    51
  0
VERTEX
  8
11TYP02-KNOBS
  5
EE1
 10
0.0
 20
0.0
 30
0.0
 70
   128
 71
    56
 72
    55
 73
   -49
  0
VERTEX
  8
11TYP02-KNOBS
  5
EE2
 10
0.0
 20
0.0
 30
0.0
 70
   128
 71
    51
 72
    52
 73
   -50
  0
VERTEX
  8
11TYP02-KNOBS
  5
EE3
 10
0.0
 20
0.0
 30
0.0
 70
   128
 71
    50
 72
    56
 73
   -51
  0
VERTEX
  8
11TYP02-KNOBS
  5
EE4
 10
0.0
 20
0.0
 30
0.0
 70
   128
 71
    52
 72
    54
 73
   -59
  0
VERTEX
  8
11TYP02-KNOBS
  5
EE5
 10
0.0
 20
0.0
 30
0.0
 70
   128
 71
    59
 72
    50
 73
   -52
  0
VERTEX
  8
11TYP02-KNOBS
  5
EE6
 10
0.0
 20
0.0
 30
0.0
 70
   128
 71
    54
 72
    47
 73
   -53
  0
VERTEX
  8
11TYP02-KNOBS
  5
EE7
 10
0.0
 20
0.0
 30
0.0
 70
   128
 71
    53
 72
    59
 73
   -54
  0
VERTEX
  8
11TYP02-KNOBS
  5
EE8
 10
0.0
 20
0.0
 30
0.0
 70
   128
 71
    62
 72
   103
 73
    55
  0
VERTEX
  8
11TYP02-KNOBS
  5
EE9
 10
0.0
 20
0.0
 30
0.0
 70
   128
 71
   -57
 72
    55
 73
    56
  0
VERTEX
  8
11TYP02-KNOBS
  5
EEA
 10
0.0
 20
0.0
 30
0.0
 70
   128
 71
    57
 72
    62
 73
   -55
  0
VERTEX
  8
11TYP02-KNOBS
  5
EEB
 10
0.0
 20
0.0
 30
0.0
 70
   128
 71
    56
 72
    50
 73
   -58
  0
VERTEX
  8
11TYP02-KNOBS
  5
EEC
 10
0.0
 20
0.0
 30
0.0
 70
   128
 71
    58
 72
    57
 73
   -56
  0
VERTEX
  8
11TYP02-KNOBS
  5
EED
 10
0.0
 20
0.0
 30
0.0
 70
   128
 71
    50
 72
    59
 73
   -63
  0
VERTEX
  8
11TYP02-KNOBS
  5
EEE
 10
0.0
 20
0.0
 30
0.0
 70
   128
 71
    63
 72
    58
 73
   -50
  0
VERTEX
  8
11TYP02-KNOBS
  5
EEF
 10
0.0
 20
0.0
 30
0.0
 70
   128
 71
    59
 72
    53
 73
   -60
  0
VERTEX
  8
11TYP02-KNOBS
  5
EF0
 10
0.0
 20
0.0
 30
0.0
 70
   128
 71
    60
 72
    63
 73
   -59
  0
VERTEX
  8
11TYP02-KNOBS
  5
EF1
 10
0.0
 20
0.0
 30
0.0
 70
   128
 71
    61
 72
   103
 73
    62
  0
VERTEX
  8
11TYP02-KNOBS
  5
EF2
 10
0.0
 20
0.0
 30
0.0
 70
   128
 71
   -67
 72
    62
 73
    57
  0
VERTEX
  8
11TYP02-KNOBS
  5
EF3
 10
0.0
 20
0.0
 30
0.0
 70
   128
 71
    67
 72
    61
 73
   -62
  0
VERTEX
  8
11TYP02-KNOBS
  5
EF4
 10
0.0
 20
0.0
 30
0.0
 70
   128
 71
    57
 72
    58
 73
   -64
  0
VERTEX
  8
11TYP02-KNOBS
  5
EF5
 10
0.0
 20
0.0
 30
0.0
 70
   128
 71
    64
 72
    67
 73
   -57
  0
VERTEX
  8
11TYP02-KNOBS
  5
EF6
 10
0.0
 20
0.0
 30
0.0
 70
   128
 71
    58
 72
    63
 73
   -65
  0
VERTEX
  8
11TYP02-KNOBS
  5
EF7
 10
0.0
 20
0.0
 30
0.0
 70
   128
 71
    65
 72
    64
 73
   -58
  0
VERTEX
  8
11TYP02-KNOBS
  5
EF8
 10
0.0
 20
0.0
 30
0.0
 70
   128
 71
    63
 72
    60
 73
   -66
  0
VERTEX
  8
11TYP02-KNOBS
  5
EF9
 10
0.0
 20
0.0
 30
0.0
 70
   128
 71
    66
 72
    65
 73
   -63
  0
VERTEX
  8
11TYP02-KNOBS
  5
EFA
 10
0.0
 20
0.0
 30
0.0
 70
   128
 71
    71
 72
   103
 73
    61
  0
VERTEX
  8
11TYP02-KNOBS
  5
EFB
 10
0.0
 20
0.0
 30
0.0
 70
   128
 71
   -71
 72
    67
 73
    68
  0
VERTEX
  8
11TYP02-KNOBS
  5
EFC
 10
0.0
 20
0.0
 30
0.0
 70
   128
 71
    71
 72
    61
 73
   -67
  0
VERTEX
  8
11TYP02-KNOBS
  5
EFD
 10
0.0
 20
0.0
 30
0.0
 70
   128
 71
    67
 72
    64
 73
   -75
  0
VERTEX
  8
11TYP02-KNOBS
  5
EFE
 10
0.0
 20
0.0
 30
0.0
 70
   128
 71
    75
 72
    68
 73
   -67
  0
VERTEX
  8
11TYP02-KNOBS
  5
EFF
 10
0.0
 20
0.0
 30
0.0
 70
   128
 71
    64
 72
    65
 73
   -70
  0
VERTEX
  8
11TYP02-KNOBS
  5
F00
 10
0.0
 20
0.0
 30
0.0
 70
   128
 71
    70
 72
    75
 73
   -64
  0
VERTEX
  8
11TYP02-KNOBS
  5
F01
 10
0.0
 20
0.0
 30
0.0
 70
   128
 71
    65
 72
    66
 73
   -69
  0
VERTEX
  8
11TYP02-KNOBS
  5
F02
 10
0.0
 20
0.0
 30
0.0
 70
   128
 71
    69
 72
    70
 73
   -65
  0
VERTEX
  8
11TYP02-KNOBS
  5
F03
 10
0.0
 20
0.0
 30
0.0
 70
   128
 71
    72
 72
   103
 73
    71
  0
VERTEX
  8
11TYP02-KNOBS
  5
F04
 10
0.0
 20
0.0
 30
0.0
 70
   128
 71
   -73
 72
    71
 73
    68
  0
VERTEX
  8
11TYP02-KNOBS
  5
F05
 10
0.0
 20
0.0
 30
0.0
 70
   128
 71
    73
 72
    72
 73
   -71
  0
VERTEX
  8
11TYP02-KNOBS
  5
F06
 10
0.0
 20
0.0
 30
0.0
 70
   128
 71
    68
 72
    75
 73
   -74
  0
VERTEX
  8
11TYP02-KNOBS
  5
F07
 10
0.0
 20
0.0
 30
0.0
 70
   128
 71
    74
 72
    73
 73
   -68
  0
VERTEX
  8
11TYP02-KNOBS
  5
F08
 10
0.0
 20
0.0
 30
0.0
 70
   128
 71
    75
 72
    70
 73
   -76
  0
VERTEX
  8
11TYP02-KNOBS
  5
F09
 10
0.0
 20
0.0
 30
0.0
 70
   128
 71
    76
 72
    74
 73
   -75
  0
VERTEX
  8
11TYP02-KNOBS
  5
F0A
 10
0.0
 20
0.0
 30
0.0
 70
   128
 71
    70
 72
    69
 73
   -77
  0
VERTEX
  8
11TYP02-KNOBS
  5
F0B
 10
0.0
 20
0.0
 30
0.0
 70
   128
 71
    77
 72
    76
 73
   -70
  0
VERTEX
  8
11TYP02-KNOBS
  5
F0C
 10
0.0
 20
0.0
 30
0.0
 70
   128
 71
    83
 72
   103
 73
    72
  0
VERTEX
  8
11TYP02-KNOBS
  5
F0D
 10
0.0
 20
0.0
 30
0.0
 70
   128
 71
   -83
 72
    73
 73
    82
  0
VERTEX
  8
11TYP02-KNOBS
  5
F0E
 10
0.0
 20
0.0
 30
0.0
 70
   128
 71
    83
 72
    72
 73
   -73
  0
VERTEX
  8
11TYP02-KNOBS
  5
F0F
 10
0.0
 20
0.0
 30
0.0
 70
   128
 71
    73
 72
    74
 73
   -78
  0
VERTEX
  8
11TYP02-KNOBS
  5
F10
 10
0.0
 20
0.0
 30
0.0
 70
   128
 71
    78
 72
    82
 73
   -73
  0
VERTEX
  8
11TYP02-KNOBS
  5
F11
 10
0.0
 20
0.0
 30
0.0
 70
   128
 71
    74
 72
    76
 73
   -79
  0
VERTEX
  8
11TYP02-KNOBS
  5
F12
 10
0.0
 20
0.0
 30
0.0
 70
   128
 71
    79
 72
    78
 73
   -74
  0
VERTEX
  8
11TYP02-KNOBS
  5
F13
 10
0.0
 20
0.0
 30
0.0
 70
   128
 71
    76
 72
    77
 73
   -80
  0
VERTEX
  8
11TYP02-KNOBS
  5
F14
 10
0.0
 20
0.0
 30
0.0
 70
   128
 71
    80
 72
    79
 73
   -76
  0
VERTEX
  8
11TYP02-KNOBS
  5
F15
 10
0.0
 20
0.0
 30
0.0
 70
   128
 71
    81
 72
   103
 73
    83
  0
VERTEX
  8
11TYP02-KNOBS
  5
F16
 10
0.0
 20
0.0
 30
0.0
 70
   128
 71
   -81
 72
    82
 73
    86
  0
VERTEX
  8
11TYP02-KNOBS
  5
F17
 10
0.0
 20
0.0
 30
0.0
 70
   128
 71
    81
 72
    83
 73
   -82
  0
VERTEX
  8
11TYP02-KNOBS
  5
F18
 10
0.0
 20
0.0
 30
0.0
 70
   128
 71
    82
 72
    78
 73
   -88
  0
VERTEX
  8
11TYP02-KNOBS
  5
F19
 10
0.0
 20
0.0
 30
0.0
 70
   128
 71
    88
 72
    86
 73
   -82
  0
VERTEX
  8
11TYP02-KNOBS
  5
F1A
 10
0.0
 20
0.0
 30
0.0
 70
   128
 71
    78
 72
    79
 73
   -89
  0
VERTEX
  8
11TYP02-KNOBS
  5
F1B
 10
0.0
 20
0.0
 30
0.0
 70
   128
 71
    89
 72
    88
 73
   -78
  0
VERTEX
  8
11TYP02-KNOBS
  5
F1C
 10
0.0
 20
0.0
 30
0.0
 70
   128
 71
    79
 72
    80
 73
   -84
  0
VERTEX
  8
11TYP02-KNOBS
  5
F1D
 10
0.0
 20
0.0
 30
0.0
 70
   128
 71
    84
 72
    89
 73
   -79
  0
VERTEX
  8
11TYP02-KNOBS
  5
F1E
 10
0.0
 20
0.0
 30
0.0
 70
   128
 71
    85
 72
   103
 73
    81
  0
VERTEX
  8
11TYP02-KNOBS
  5
F1F
 10
0.0
 20
0.0
 30
0.0
 70
   128
 71
   -87
 72
    81
 73
    86
  0
VERTEX
  8
11TYP02-KNOBS
  5
F20
 10
0.0
 20
0.0
 30
0.0
 70
   128
 71
    87
 72
    85
 73
   -81
  0
VERTEX
  8
11TYP02-KNOBS
  5
F21
 10
0.0
 20
0.0
 30
0.0
 70
   128
 71
    86
 72
    88
 73
   -92
  0
VERTEX
  8
11TYP02-KNOBS
  5
F22
 10
0.0
 20
0.0
 30
0.0
 70
   128
 71
    92
 72
    87
 73
   -86
  0
VERTEX
  8
11TYP02-KNOBS
  5
F23
 10
0.0
 20
0.0
 30
0.0
 70
   128
 71
    88
 72
    89
 73
   -90
  0
VERTEX
  8
11TYP02-KNOBS
  5
F24
 10
0.0
 20
0.0
 30
0.0
 70
   128
 71
    90
 72
    92
 73
   -88
  0
VERTEX
  8
11TYP02-KNOBS
  5
F25
 10
0.0
 20
0.0
 30
0.0
 70
   128
 71
    89
 72
    84
 73
   -91
  0
VERTEX
  8
11TYP02-KNOBS
  5
F26
 10
0.0
 20
0.0
 30
0.0
 70
   128
 71
    91
 72
    90
 73
   -89
  0
VERTEX
  8
11TYP02-KNOBS
  5
F27
 10
0.0
 20
0.0
 30
0.0
 70
   128
 71
    93
 72
   103
 73
    85
  0
VERTEX
  8
11TYP02-KNOBS
  5
F28
 10
0.0
 20
0.0
 30
0.0
 70
   128
 71
   -96
 72
    85
 73
    87
  0
VERTEX
  8
11TYP02-KNOBS
  5
F29
 10
0.0
 20
0.0
 30
0.0
 70
   128
 71
    96
 72
    93
 73
   -85
  0
VERTEX
  8
11TYP02-KNOBS
  5
F2A
 10
0.0
 20
0.0
 30
0.0
 70
   128
 71
    87
 72
    92
 73
   -95
  0
VERTEX
  8
11TYP02-KNOBS
  5
F2B
 10
0.0
 20
0.0
 30
0.0
 70
   128
 71
    95
 72
    96
 73
   -87
  0
VERTEX
  8
11TYP02-KNOBS
  5
F2C
 10
0.0
 20
0.0
 30
0.0
 70
   128
 71
    92
 72
    90
 73
   -97
  0
VERTEX
  8
11TYP02-KNOBS
  5
F2D
 10
0.0
 20
0.0
 30
0.0
 70
   128
 71
    97
 72
    95
 73
   -92
  0
VERTEX
  8
11TYP02-KNOBS
  5
F2E
 10
0.0
 20
0.0
 30
0.0
 70
   128
 71
    90
 72
    91
 73
  -100
  0
VERTEX
  8
11TYP02-KNOBS
  5
F2F
 10
0.0
 20
0.0
 30
0.0
 70
   128
 71
   100
 72
    97
 73
   -90
  0
VERTEX
  8
11TYP02-KNOBS
  5
F30
 10
0.0
 20
0.0
 30
0.0
 70
   128
 71
   102
 72
   103
 73
    93
  0
VERTEX
  8
11TYP02-KNOBS
  5
F31
 10
0.0
 20
0.0
 30
0.0
 70
   128
 71
   -94
 72
    93
 73
    96
  0
VERTEX
  8
11TYP02-KNOBS
  5
F32
 10
0.0
 20
0.0
 30
0.0
 70
   128
 71
    94
 72
   102
 73
   -93
  0
VERTEX
  8
11TYP02-KNOBS
  5
F33
 10
0.0
 20
0.0
 30
0.0
 70
   128
 71
    96
 72
    95
 73
   -98
  0
VERTEX
  8
11TYP02-KNOBS
  5
F34
 10
0.0
 20
0.0
 30
0.0
 70
   128
 71
    98
 72
    94
 73
   -96
  0
VERTEX
  8
11TYP02-KNOBS
  5
F35
 10
0.0
 20
0.0
 30
0.0
 70
   128
 71
    95
 72
    97
 73
  -101
  0
VERTEX
  8
11TYP02-KNOBS
  5
F36
 10
0.0
 20
0.0
 30
0.0
 70
   128
 71
   101
 72
    98
 73
   -95
  0
VERTEX
  8
11TYP02-KNOBS
  5
F37
 10
0.0
 20
0.0
 30
0.0
 70
   128
 71
    97
 72
   100
 73
   -99
  0
VERTEX
  8
11TYP02-KNOBS
  5
F38
 10
0.0
 20
0.0
 30
0.0
 70
   128
 71
    99
 72
   101
 73
   -97
  0
VERTEX
  8
11TYP02-KNOBS
  5
F39
 10
0.0
 20
0.0
 30
0.0
 70
   128
 71
   104
 72
   103
 73
   102
  0
VERTEX
  8
11TYP02-KNOBS
  5
F3A
 10
0.0
 20
0.0
 30
0.0
 70
   128
 71
  -105
 72
   102
 73
    94
  0
VERTEX
  8
11TYP02-KNOBS
  5
F3B
 10
0.0
 20
0.0
 30
0.0
 70
   128
 71
   105
 72
   104
 73
  -102
  0
VERTEX
  8
11TYP02-KNOBS
  5
F3C
 10
0.0
 20
0.0
 30
0.0
 70
   128
 71
    94
 72
    98
 73
  -106
  0
VERTEX
  8
11TYP02-KNOBS
  5
F3D
 10
0.0
 20
0.0
 30
0.0
 70
   128
 71
   106
 72
   105
 73
   -94
  0
VERTEX
  8
11TYP02-KNOBS
  5
F3E
 10
0.0
 20
0.0
 30
0.0
 70
   128
 71
    98
 72
   101
 73
  -112
  0
VERTEX
  8
11TYP02-KNOBS
  5
F3F
 10
0.0
 20
0.0
 30
0.0
 70
   128
 71
   112
 72
   106
 73
   -98
  0
VERTEX
  8
11TYP02-KNOBS
  5
F40
 10
0.0
 20
0.0
 30
0.0
 70
   128
 71
   101
 72
    99
 73
  -111
  0
VERTEX
  8
11TYP02-KNOBS
  5
F41
 10
0.0
 20
0.0
 30
0.0
 70
   128
 71
   111
 72
   112
 73
  -101
  0
VERTEX
  8
11TYP02-KNOBS
  5
F42
 10
0.0
 20
0.0
 30
0.0
 70
   128
 71
   107
 72
   103
 73
   104
  0
VERTEX
  8
11TYP02-KNOBS
  5
F43
 10
0.0
 20
0.0
 30
0.0
 70
   128
 71
  -108
 72
   104
 73
   105
  0
VERTEX
  8
11TYP02-KNOBS
  5
F44
 10
0.0
 20
0.0
 30
0.0
 70
   128
 71
   108
 72
   107
 73
  -104
  0
VERTEX
  8
11TYP02-KNOBS
  5
F45
 10
0.0
 20
0.0
 30
0.0
 70
   128
 71
   105
 72
   106
 73
  -115
  0
VERTEX
  8
11TYP02-KNOBS
  5
F46
 10
0.0
 20
0.0
 30
0.0
 70
   128
 71
   115
 72
   108
 73
  -105
  0
VERTEX
  8
11TYP02-KNOBS
  5
F47
 10
0.0
 20
0.0
 30
0.0
 70
   128
 71
   106
 72
   112
 73
  -109
  0
VERTEX
  8
11TYP02-KNOBS
  5
F48
 10
0.0
 20
0.0
 30
0.0
 70
   128
 71
   109
 72
   115
 73
  -106
  0
VERTEX
  8
11TYP02-KNOBS
  5
F49
 10
0.0
 20
0.0
 30
0.0
 70
   128
 71
   112
 72
   111
 73
  -110
  0
VERTEX
  8
11TYP02-KNOBS
  5
F4A
 10
0.0
 20
0.0
 30
0.0
 70
   128
 71
   110
 72
   109
 73
  -112
  0
VERTEX
  8
11TYP02-KNOBS
  5
F4B
 10
0.0
 20
0.0
 30
0.0
 70
   128
 71
   113
 72
   103
 73
   107
  0
VERTEX
  8
11TYP02-KNOBS
  5
F4C
 10
0.0
 20
0.0
 30
0.0
 70
   128
 71
  -113
 72
   108
 73
   114
  0
VERTEX
  8
11TYP02-KNOBS
  5
F4D
 10
0.0
 20
0.0
 30
0.0
 70
   128
 71
   113
 72
   107
 73
  -108
  0
VERTEX
  8
11TYP02-KNOBS
  5
F4E
 10
0.0
 20
0.0
 30
0.0
 70
   128
 71
   108
 72
   115
 73
  -120
  0
VERTEX
  8
11TYP02-KNOBS
  5
F4F
 10
0.0
 20
0.0
 30
0.0
 70
   128
 71
   120
 72
   114
 73
  -108
  0
VERTEX
  8
11TYP02-KNOBS
  5
F50
 10
0.0
 20
0.0
 30
0.0
 70
   128
 71
   115
 72
   109
 73
  -116
  0
VERTEX
  8
11TYP02-KNOBS
  5
F51
 10
0.0
 20
0.0
 30
0.0
 70
   128
 71
   116
 72
   120
 73
  -115
  0
VERTEX
  8
11TYP02-KNOBS
  5
F52
 10
0.0
 20
0.0
 30
0.0
 70
   128
 71
   109
 72
   110
 73
  -117
  0
VERTEX
  8
11TYP02-KNOBS
  5
F53
 10
0.0
 20
0.0
 30
0.0
 70
   128
 71
   117
 72
   116
 73
  -109
  0
VERTEX
  8
11TYP02-KNOBS
  5
F54
 10
0.0
 20
0.0
 30
0.0
 70
   128
 71
   118
 72
   103
 73
   113
  0
VERTEX
  8
11TYP02-KNOBS
  5
F55
 10
0.0
 20
0.0
 30
0.0
 70
   128
 71
    -3
 72
   113
 73
   114
  0
VERTEX
  8
11TYP02-KNOBS
  5
F56
 10
0.0
 20
0.0
 30
0.0
 70
   128
 71
     3
 72
   118
 73
  -113
  0
VERTEX
  8
11TYP02-KNOBS
  5
F57
 10
0.0
 20
0.0
 30
0.0
 70
   128
 71
   114
 72
   120
 73
  -119
  0
VERTEX
  8
11TYP02-KNOBS
  5
F58
 10
0.0
 20
0.0
 30
0.0
 70
   128
 71
   119
 72
     3
 73
  -114
  0
VERTEX
  8
11TYP02-KNOBS
  5
F59
 10
0.0
 20
0.0
 30
0.0
 70
   128
 71
   120
 72
   116
 73
    -4
  0
VERTEX
  8
11TYP02-KNOBS
  5
F5A
 10
0.0
 20
0.0
 30
0.0
 70
   128
 71
     4
 72
   119
 73
  -120
  0
VERTEX
  8
11TYP02-KNOBS
  5
F5B
 10
0.0
 20
0.0
 30
0.0
 70
   128
 71
   116
 72
   117
 73
  -121
  0
VERTEX
  8
11TYP02-KNOBS
  5
F5C
 10
0.0
 20
0.0
 30
0.0
 70
   128
 71
   121
 72
     4
 73
  -116
  0
VERTEX
  8
11TYP02-KNOBS
  5
F5D
 10
0.0
 20
0.0
 30
0.0
 70
   128
 71
   155
 72
   128
 73
   238
  0
VERTEX
  8
11TYP02-KNOBS
  5
F5E
 10
0.0
 20
0.0
 30
0.0
 70
   128
 71
  -238
 72
   122
 73
   239
  0
VERTEX
  8
11TYP02-KNOBS
  5
F5F
 10
0.0
 20
0.0
 30
0.0
 70
   128
 71
   128
 72
  -122
 73
   238
  0
VERTEX
  8
11TYP02-KNOBS
  5
F60
 10
0.0
 20
0.0
 30
0.0
 70
   128
 71
   240
 72
  -239
 73
   129
  0
VERTEX
  8
11TYP02-KNOBS
  5
F61
 10
0.0
 20
0.0
 30
0.0
 70
   128
 71
   122
 72
  -129
 73
   239
  0
VERTEX
  8
11TYP02-KNOBS
  5
F62
 10
0.0
 20
0.0
 30
0.0
 70
   128
 71
   125
 72
  -240
 73
   123
  0
VERTEX
  8
11TYP02-KNOBS
  5
F63
 10
0.0
 20
0.0
 30
0.0
 70
   128
 71
   129
 72
  -123
 73
   240
  0
VERTEX
  8
11TYP02-KNOBS
  5
F64
 10
0.0
 20
0.0
 30
0.0
 70
   128
 71
   124
 72
  -125
 73
   126
  0
VERTEX
  8
11TYP02-KNOBS
  5
F65
 10
0.0
 20
0.0
 30
0.0
 70
   128
 71
   123
 72
  -126
 73
   125
  0
VERTEX
  8
11TYP02-KNOBS
  5
F66
 10
0.0
 20
0.0
 30
0.0
 70
   128
 71
   155
 72
   127
 73
   128
  0
VERTEX
  8
11TYP02-KNOBS
  5
F67
 10
0.0
 20
0.0
 30
0.0
 70
   128
 71
  -128
 72
   130
 73
   122
  0
VERTEX
  8
11TYP02-KNOBS
  5
F68
 10
0.0
 20
0.0
 30
0.0
 70
   128
 71
   127
 72
  -130
 73
   128
  0
VERTEX
  8
11TYP02-KNOBS
  5
F69
 10
0.0
 20
0.0
 30
0.0
 70
   128
 71
   129
 72
  -122
 73
   132
  0
VERTEX
  8
11TYP02-KNOBS
  5
F6A
 10
0.0
 20
0.0
 30
0.0
 70
   128
 71
   130
 72
  -132
 73
   122
  0
VERTEX
  8
11TYP02-KNOBS
  5
F6B
 10
0.0
 20
0.0
 30
0.0
 70
   128
 71
   123
 72
  -129
 73
   133
  0
VERTEX
  8
11TYP02-KNOBS
  5
F6C
 10
0.0
 20
0.0
 30
0.0
 70
   128
 71
   132
 72
  -133
 73
   129
  0
VERTEX
  8
11TYP02-KNOBS
  5
F6D
 10
0.0
 20
0.0
 30
0.0
 70
   128
 71
   126
 72
  -123
 73
   135
  0
VERTEX
  8
11TYP02-KNOBS
  5
F6E
 10
0.0
 20
0.0
 30
0.0
 70
   128
 71
   133
 72
  -135
 73
   123
  0
VERTEX
  8
11TYP02-KNOBS
  5
F6F
 10
0.0
 20
0.0
 30
0.0
 70
   128
 71
   155
 72
   131
 73
   127
  0
VERTEX
  8
11TYP02-KNOBS
  5
F70
 10
0.0
 20
0.0
 30
0.0
 70
   128
 71
  -130
 72
   131
 73
   136
  0
VERTEX
  8
11TYP02-KNOBS
  5
F71
 10
0.0
 20
0.0
 30
0.0
 70
   128
 71
   127
 72
  -131
 73
   130
  0
VERTEX
  8
11TYP02-KNOBS
  5
F72
 10
0.0
 20
0.0
 30
0.0
 70
   128
 71
   132
 72
  -130
 73
   137
  0
VERTEX
  8
11TYP02-KNOBS
  5
F73
 10
0.0
 20
0.0
 30
0.0
 70
   128
 71
   136
 72
  -137
 73
   130
  0
VERTEX
  8
11TYP02-KNOBS
  5
F74
 10
0.0
 20
0.0
 30
0.0
 70
   128
 71
   133
 72
  -132
 73
   139
  0
VERTEX
  8
11TYP02-KNOBS
  5
F75
 10
0.0
 20
0.0
 30
0.0
 70
   128
 71
   137
 72
  -139
 73
   132
  0
VERTEX
  8
11TYP02-KNOBS
  5
F76
 10
0.0
 20
0.0
 30
0.0
 70
   128
 71
   135
 72
  -133
 73
   134
  0
VERTEX
  8
11TYP02-KNOBS
  5
F77
 10
0.0
 20
0.0
 30
0.0
 70
   128
 71
   139
 72
  -134
 73
   133
  0
VERTEX
  8
11TYP02-KNOBS
  5
F78
 10
0.0
 20
0.0
 30
0.0
 70
   128
 71
   155
 72
   143
 73
   131
  0
VERTEX
  8
11TYP02-KNOBS
  5
F79
 10
0.0
 20
0.0
 30
0.0
 70
   128
 71
  -136
 72
   143
 73
   141
  0
VERTEX
  8
11TYP02-KNOBS
  5
F7A
 10
0.0
 20
0.0
 30
0.0
 70
   128
 71
   131
 72
  -143
 73
   136
  0
VERTEX
  8
11TYP02-KNOBS
  5
F7B
 10
0.0
 20
0.0
 30
0.0
 70
   128
 71
   137
 72
  -136
 73
   145
  0
VERTEX
  8
11TYP02-KNOBS
  5
F7C
 10
0.0
 20
0.0
 30
0.0
 70
   128
 71
   141
 72
  -145
 73
   136
  0
VERTEX
  8
11TYP02-KNOBS
  5
F7D
 10
0.0
 20
0.0
 30
0.0
 70
   128
 71
   139
 72
  -137
 73
   138
  0
VERTEX
  8
11TYP02-KNOBS
  5
F7E
 10
0.0
 20
0.0
 30
0.0
 70
   128
 71
   145
 72
  -138
 73
   137
  0
VERTEX
  8
11TYP02-KNOBS
  5
F7F
 10
0.0
 20
0.0
 30
0.0
 70
   128
 71
   134
 72
  -139
 73
   140
  0
VERTEX
  8
11TYP02-KNOBS
  5
F80
 10
0.0
 20
0.0
 30
0.0
 70
   128
 71
   138
 72
  -140
 73
   139
  0
VERTEX
  8
11TYP02-KNOBS
  5
F81
 10
0.0
 20
0.0
 30
0.0
 70
   128
 71
   155
 72
   142
 73
   143
  0
VERTEX
  8
11TYP02-KNOBS
  5
F82
 10
0.0
 20
0.0
 30
0.0
 70
   128
 71
  -141
 72
   142
 73
   148
  0
VERTEX
  8
11TYP02-KNOBS
  5
F83
 10
0.0
 20
0.0
 30
0.0
 70
   128
 71
   143
 72
  -142
 73
   141
  0
VERTEX
  8
11TYP02-KNOBS
  5
F84
 10
0.0
 20
0.0
 30
0.0
 70
   128
 71
   145
 72
  -141
 73
   144
  0
VERTEX
  8
11TYP02-KNOBS
  5
F85
 10
0.0
 20
0.0
 30
0.0
 70
   128
 71
   148
 72
  -144
 73
   141
  0
VERTEX
  8
11TYP02-KNOBS
  5
F86
 10
0.0
 20
0.0
 30
0.0
 70
   128
 71
   138
 72
  -145
 73
   151
  0
VERTEX
  8
11TYP02-KNOBS
  5
F87
 10
0.0
 20
0.0
 30
0.0
 70
   128
 71
   144
 72
  -151
 73
   145
  0
VERTEX
  8
11TYP02-KNOBS
  5
F88
 10
0.0
 20
0.0
 30
0.0
 70
   128
 71
   140
 72
  -138
 73
   146
  0
VERTEX
  8
11TYP02-KNOBS
  5
F89
 10
0.0
 20
0.0
 30
0.0
 70
   128
 71
   151
 72
  -146
 73
   138
  0
VERTEX
  8
11TYP02-KNOBS
  5
F8A
 10
0.0
 20
0.0
 30
0.0
 70
   128
 71
   155
 72
   147
 73
   142
  0
VERTEX
  8
11TYP02-KNOBS
  5
F8B
 10
0.0
 20
0.0
 30
0.0
 70
   128
 71
  -142
 72
   149
 73
   148
  0
VERTEX
  8
11TYP02-KNOBS
  5
F8C
 10
0.0
 20
0.0
 30
0.0
 70
   128
 71
   147
 72
  -149
 73
   142
  0
VERTEX
  8
11TYP02-KNOBS
  5
F8D
 10
0.0
 20
0.0
 30
0.0
 70
   128
 71
   144
 72
  -148
 73
   152
  0
VERTEX
  8
11TYP02-KNOBS
  5
F8E
 10
0.0
 20
0.0
 30
0.0
 70
   128
 71
   149
 72
  -152
 73
   148
  0
VERTEX
  8
11TYP02-KNOBS
  5
F8F
 10
0.0
 20
0.0
 30
0.0
 70
   128
 71
   151
 72
  -144
 73
   150
  0
VERTEX
  8
11TYP02-KNOBS
  5
F90
 10
0.0
 20
0.0
 30
0.0
 70
   128
 71
   152
 72
  -150
 73
   144
  0
VERTEX
  8
11TYP02-KNOBS
  5
F91
 10
0.0
 20
0.0
 30
0.0
 70
   128
 71
   146
 72
  -151
 73
   153
  0
VERTEX
  8
11TYP02-KNOBS
  5
F92
 10
0.0
 20
0.0
 30
0.0
 70
   128
 71
   150
 72
  -153
 73
   151
  0
VERTEX
  8
11TYP02-KNOBS
  5
F93
 10
0.0
 20
0.0
 30
0.0
 70
   128
 71
   155
 72
   157
 73
   147
  0
VERTEX
  8
11TYP02-KNOBS
  5
F94
 10
0.0
 20
0.0
 30
0.0
 70
   128
 71
  -149
 72
   157
 73
   159
  0
VERTEX
  8
11TYP02-KNOBS
  5
F95
 10
0.0
 20
0.0
 30
0.0
 70
   128
 71
   147
 72
  -157
 73
   149
  0
VERTEX
  8
11TYP02-KNOBS
  5
F96
 10
0.0
 20
0.0
 30
0.0
 70
   128
 71
   152
 72
  -149
 73
   158
  0
VERTEX
  8
11TYP02-KNOBS
  5
F97
 10
0.0
 20
0.0
 30
0.0
 70
   128
 71
   159
 72
  -158
 73
   149
  0
VERTEX
  8
11TYP02-KNOBS
  5
F98
 10
0.0
 20
0.0
 30
0.0
 70
   128
 71
   150
 72
  -152
 73
   162
  0
VERTEX
  8
11TYP02-KNOBS
  5
F99
 10
0.0
 20
0.0
 30
0.0
 70
   128
 71
   158
 72
  -162
 73
   152
  0
VERTEX
  8
11TYP02-KNOBS
  5
F9A
 10
0.0
 20
0.0
 30
0.0
 70
   128
 71
   153
 72
  -150
 73
   154
  0
VERTEX
  8
11TYP02-KNOBS
  5
F9B
 10
0.0
 20
0.0
 30
0.0
 70
   128
 71
   162
 72
  -154
 73
   150
  0
VERTEX
  8
11TYP02-KNOBS
  5
F9C
 10
0.0
 20
0.0
 30
0.0
 70
   128
 71
   155
 72
   156
 73
   157
  0
VERTEX
  8
11TYP02-KNOBS
  5
F9D
 10
0.0
 20
0.0
 30
0.0
 70
   128
 71
  -157
 72
   163
 73
   159
  0
VERTEX
  8
11TYP02-KNOBS
  5
F9E
 10
0.0
 20
0.0
 30
0.0
 70
   128
 71
   156
 72
  -163
 73
   157
  0
VERTEX
  8
11TYP02-KNOBS
  5
F9F
 10
0.0
 20
0.0
 30
0.0
 70
   128
 71
   158
 72
  -159
 73
   164
  0
VERTEX
  8
11TYP02-KNOBS
  5
FA0
 10
0.0
 20
0.0
 30
0.0
 70
   128
 71
   163
 72
  -164
 73
   159
  0
VERTEX
  8
11TYP02-KNOBS
  5
FA1
 10
0.0
 20
0.0
 30
0.0
 70
   128
 71
   162
 72
  -158
 73
   160
  0
VERTEX
  8
11TYP02-KNOBS
  5
FA2
 10
0.0
 20
0.0
 30
0.0
 70
   128
 71
   164
 72
  -160
 73
   158
  0
VERTEX
  8
11TYP02-KNOBS
  5
FA3
 10
0.0
 20
0.0
 30
0.0
 70
   128
 71
   154
 72
  -162
 73
   161
  0
VERTEX
  8
11TYP02-KNOBS
  5
FA4
 10
0.0
 20
0.0
 30
0.0
 70
   128
 71
   160
 72
  -161
 73
   162
  0
VERTEX
  8
11TYP02-KNOBS
  5
FA5
 10
0.0
 20
0.0
 30
0.0
 70
   128
 71
   155
 72
   168
 73
   156
  0
VERTEX
  8
11TYP02-KNOBS
  5
FA6
 10
0.0
 20
0.0
 30
0.0
 70
   128
 71
  -156
 72
   165
 73
   163
  0
VERTEX
  8
11TYP02-KNOBS
  5
FA7
 10
0.0
 20
0.0
 30
0.0
 70
   128
 71
   168
 72
  -165
 73
   156
  0
VERTEX
  8
11TYP02-KNOBS
  5
FA8
 10
0.0
 20
0.0
 30
0.0
 70
   128
 71
   164
 72
  -163
 73
   171
  0
VERTEX
  8
11TYP02-KNOBS
  5
FA9
 10
0.0
 20
0.0
 30
0.0
 70
   128
 71
   165
 72
  -171
 73
   163
  0
VERTEX
  8
11TYP02-KNOBS
  5
FAA
 10
0.0
 20
0.0
 30
0.0
 70
   128
 71
   160
 72
  -164
 73
   172
  0
VERTEX
  8
11TYP02-KNOBS
  5
FAB
 10
0.0
 20
0.0
 30
0.0
 70
   128
 71
   171
 72
  -172
 73
   164
  0
VERTEX
  8
11TYP02-KNOBS
  5
FAC
 10
0.0
 20
0.0
 30
0.0
 70
   128
 71
   161
 72
  -160
 73
   166
  0
VERTEX
  8
11TYP02-KNOBS
  5
FAD
 10
0.0
 20
0.0
 30
0.0
 70
   128
 71
   172
 72
  -166
 73
   160
  0
VERTEX
  8
11TYP02-KNOBS
  5
FAE
 10
0.0
 20
0.0
 30
0.0
 70
   128
 71
   155
 72
   169
 73
   168
  0
VERTEX
  8
11TYP02-KNOBS
  5
FAF
 10
0.0
 20
0.0
 30
0.0
 70
   128
 71
  -165
 72
   169
 73
   167
  0
VERTEX
  8
11TYP02-KNOBS
  5
FB0
 10
0.0
 20
0.0
 30
0.0
 70
   128
 71
   168
 72
  -169
 73
   165
  0
VERTEX
  8
11TYP02-KNOBS
  5
FB1
 10
0.0
 20
0.0
 30
0.0
 70
   128
 71
   171
 72
  -165
 73
   170
  0
VERTEX
  8
11TYP02-KNOBS
  5
FB2
 10
0.0
 20
0.0
 30
0.0
 70
   128
 71
   167
 72
  -170
 73
   165
  0
VERTEX
  8
11TYP02-KNOBS
  5
FB3
 10
0.0
 20
0.0
 30
0.0
 70
   128
 71
   172
 72
  -171
 73
   176
  0
VERTEX
  8
11TYP02-KNOBS
  5
FB4
 10
0.0
 20
0.0
 30
0.0
 70
   128
 71
   170
 72
  -176
 73
   171
  0
VERTEX
  8
11TYP02-KNOBS
  5
FB5
 10
0.0
 20
0.0
 30
0.0
 70
   128
 71
   166
 72
  -172
 73
   173
  0
VERTEX
  8
11TYP02-KNOBS
  5
FB6
 10
0.0
 20
0.0
 30
0.0
 70
   128
 71
   176
 72
  -173
 73
   172
  0
VERTEX
  8
11TYP02-KNOBS
  5
FB7
 10
0.0
 20
0.0
 30
0.0
 70
   128
 71
   155
 72
   175
 73
   169
  0
VERTEX
  8
11TYP02-KNOBS
  5
FB8
 10
0.0
 20
0.0
 30
0.0
 70
   128
 71
  -169
 72
   174
 73
   167
  0
VERTEX
  8
11TYP02-KNOBS
  5
FB9
 10
0.0
 20
0.0
 30
0.0
 70
   128
 71
   175
 72
  -174
 73
   169
  0
VERTEX
  8
11TYP02-KNOBS
  5
FBA
 10
0.0
 20
0.0
 30
0.0
 70
   128
 71
   170
 72
  -167
 73
   179
  0
VERTEX
  8
11TYP02-KNOBS
  5
FBB
 10
0.0
 20
0.0
 30
0.0
 70
   128
 71
   174
 72
  -179
 73
   167
  0
VERTEX
  8
11TYP02-KNOBS
  5
FBC
 10
0.0
 20
0.0
 30
0.0
 70
   128
 71
   176
 72
  -170
 73
   180
  0
VERTEX
  8
11TYP02-KNOBS
  5
FBD
 10
0.0
 20
0.0
 30
0.0
 70
   128
 71
   179
 72
  -180
 73
   170
  0
VERTEX
  8
11TYP02-KNOBS
  5
FBE
 10
0.0
 20
0.0
 30
0.0
 70
   128
 71
   173
 72
  -176
 73
   177
  0
VERTEX
  8
11TYP02-KNOBS
  5
FBF
 10
0.0
 20
0.0
 30
0.0
 70
   128
 71
   180
 72
  -177
 73
   176
  0
VERTEX
  8
11TYP02-KNOBS
  5
FC0
 10
0.0
 20
0.0
 30
0.0
 70
   128
 71
   155
 72
   183
 73
   175
  0
VERTEX
  8
11TYP02-KNOBS
  5
FC1
 10
0.0
 20
0.0
 30
0.0
 70
   128
 71
  -174
 72
   183
 73
   182
  0
VERTEX
  8
11TYP02-KNOBS
  5
FC2
 10
0.0
 20
0.0
 30
0.0
 70
   128
 71
   175
 72
  -183
 73
   174
  0
VERTEX
  8
11TYP02-KNOBS
  5
FC3
 10
0.0
 20
0.0
 30
0.0
 70
   128
 71
   179
 72
  -174
 73
   178
  0
VERTEX
  8
11TYP02-KNOBS
  5
FC4
 10
0.0
 20
0.0
 30
0.0
 70
   128
 71
   182
 72
  -178
 73
   174
  0
VERTEX
  8
11TYP02-KNOBS
  5
FC5
 10
0.0
 20
0.0
 30
0.0
 70
   128
 71
   180
 72
  -179
 73
   186
  0
VERTEX
  8
11TYP02-KNOBS
  5
FC6
 10
0.0
 20
0.0
 30
0.0
 70
   128
 71
   178
 72
  -186
 73
   179
  0
VERTEX
  8
11TYP02-KNOBS
  5
FC7
 10
0.0
 20
0.0
 30
0.0
 70
   128
 71
   177
 72
  -180
 73
   181
  0
VERTEX
  8
11TYP02-KNOBS
  5
FC8
 10
0.0
 20
0.0
 30
0.0
 70
   128
 71
   186
 72
  -181
 73
   180
  0
VERTEX
  8
11TYP02-KNOBS
  5
FC9
 10
0.0
 20
0.0
 30
0.0
 70
   128
 71
   155
 72
   184
 73
   183
  0
VERTEX
  8
11TYP02-KNOBS
  5
FCA
 10
0.0
 20
0.0
 30
0.0
 70
   128
 71
  -183
 72
   185
 73
   182
  0
VERTEX
  8
11TYP02-KNOBS
  5
FCB
 10
0.0
 20
0.0
 30
0.0
 70
   128
 71
   184
 72
  -185
 73
   183
  0
VERTEX
  8
11TYP02-KNOBS
  5
FCC
 10
0.0
 20
0.0
 30
0.0
 70
   128
 71
   178
 72
  -182
 73
   190
  0
VERTEX
  8
11TYP02-KNOBS
  5
FCD
 10
0.0
 20
0.0
 30
0.0
 70
   128
 71
   185
 72
  -190
 73
   182
  0
VERTEX
  8
11TYP02-KNOBS
  5
FCE
 10
0.0
 20
0.0
 30
0.0
 70
   128
 71
   186
 72
  -178
 73
   189
  0
VERTEX
  8
11TYP02-KNOBS
  5
FCF
 10
0.0
 20
0.0
 30
0.0
 70
   128
 71
   190
 72
  -189
 73
   178
  0
VERTEX
  8
11TYP02-KNOBS
  5
FD0
 10
0.0
 20
0.0
 30
0.0
 70
   128
 71
   181
 72
  -186
 73
   187
  0
VERTEX
  8
11TYP02-KNOBS
  5
FD1
 10
0.0
 20
0.0
 30
0.0
 70
   128
 71
   189
 72
  -187
 73
   186
  0
VERTEX
  8
11TYP02-KNOBS
  5
FD2
 10
0.0
 20
0.0
 30
0.0
 70
   128
 71
   155
 72
   188
 73
   184
  0
VERTEX
  8
11TYP02-KNOBS
  5
FD3
 10
0.0
 20
0.0
 30
0.0
 70
   128
 71
  -185
 72
   188
 73
   192
  0
VERTEX
  8
11TYP02-KNOBS
  5
FD4
 10
0.0
 20
0.0
 30
0.0
 70
   128
 71
   184
 72
  -188
 73
   185
  0
VERTEX
  8
11TYP02-KNOBS
  5
FD5
 10
0.0
 20
0.0
 30
0.0
 70
   128
 71
   190
 72
  -185
 73
   194
  0
VERTEX
  8
11TYP02-KNOBS
  5
FD6
 10
0.0
 20
0.0
 30
0.0
 70
   128
 71
   192
 72
  -194
 73
   185
  0
VERTEX
  8
11TYP02-KNOBS
  5
FD7
 10
0.0
 20
0.0
 30
0.0
 70
   128
 71
   189
 72
  -190
 73
   191
  0
VERTEX
  8
11TYP02-KNOBS
  5
FD8
 10
0.0
 20
0.0
 30
0.0
 70
   128
 71
   194
 72
  -191
 73
   190
  0
VERTEX
  8
11TYP02-KNOBS
  5
FD9
 10
0.0
 20
0.0
 30
0.0
 70
   128
 71
   187
 72
  -189
 73
   195
  0
VERTEX
  8
11TYP02-KNOBS
  5
FDA
 10
0.0
 20
0.0
 30
0.0
 70
   128
 71
   191
 72
  -195
 73
   189
  0
VERTEX
  8
11TYP02-KNOBS
  5
FDB
 10
0.0
 20
0.0
 30
0.0
 70
   128
 71
   155
 72
   198
 73
   188
  0
VERTEX
  8
11TYP02-KNOBS
  5
FDC
 10
0.0
 20
0.0
 30
0.0
 70
   128
 71
  -188
 72
   196
 73
   192
  0
VERTEX
  8
11TYP02-KNOBS
  5
FDD
 10
0.0
 20
0.0
 30
0.0
 70
   128
 71
   198
 72
  -196
 73
   188
  0
VERTEX
  8
11TYP02-KNOBS
  5
FDE
 10
0.0
 20
0.0
 30
0.0
 70
   128
 71
   194
 72
  -192
 73
   199
  0
VERTEX
  8
11TYP02-KNOBS
  5
FDF
 10
0.0
 20
0.0
 30
0.0
 70
   128
 71
   196
 72
  -199
 73
   192
  0
VERTEX
  8
11TYP02-KNOBS
  5
FE0
 10
0.0
 20
0.0
 30
0.0
 70
   128
 71
   191
 72
  -194
 73
   193
  0
VERTEX
  8
11TYP02-KNOBS
  5
FE1
 10
0.0
 20
0.0
 30
0.0
 70
   128
 71
   199
 72
  -193
 73
   194
  0
VERTEX
  8
11TYP02-KNOBS
  5
FE2
 10
0.0
 20
0.0
 30
0.0
 70
   128
 71
   195
 72
  -191
 73
   201
  0
VERTEX
  8
11TYP02-KNOBS
  5
FE3
 10
0.0
 20
0.0
 30
0.0
 70
   128
 71
   193
 72
  -201
 73
   191
  0
VERTEX
  8
11TYP02-KNOBS
  5
FE4
 10
0.0
 20
0.0
 30
0.0
 70
   128
 71
   155
 72
   197
 73
   198
  0
VERTEX
  8
11TYP02-KNOBS
  5
FE5
 10
0.0
 20
0.0
 30
0.0
 70
   128
 71
  -196
 72
   197
 73
   203
  0
VERTEX
  8
11TYP02-KNOBS
  5
FE6
 10
0.0
 20
0.0
 30
0.0
 70
   128
 71
   198
 72
  -197
 73
   196
  0
VERTEX
  8
11TYP02-KNOBS
  5
FE7
 10
0.0
 20
0.0
 30
0.0
 70
   128
 71
   199
 72
  -196
 73
   205
  0
VERTEX
  8
11TYP02-KNOBS
  5
FE8
 10
0.0
 20
0.0
 30
0.0
 70
   128
 71
   203
 72
  -205
 73
   196
  0
VERTEX
  8
11TYP02-KNOBS
  5
FE9
 10
0.0
 20
0.0
 30
0.0
 70
   128
 71
   193
 72
  -199
 73
   200
  0
VERTEX
  8
11TYP02-KNOBS
  5
FEA
 10
0.0
 20
0.0
 30
0.0
 70
   128
 71
   205
 72
  -200
 73
   199
  0
VERTEX
  8
11TYP02-KNOBS
  5
FEB
 10
0.0
 20
0.0
 30
0.0
 70
   128
 71
   201
 72
  -193
 73
   206
  0
VERTEX
  8
11TYP02-KNOBS
  5
FEC
 10
0.0
 20
0.0
 30
0.0
 70
   128
 71
   200
 72
  -206
 73
   193
  0
VERTEX
  8
11TYP02-KNOBS
  5
FED
 10
0.0
 20
0.0
 30
0.0
 70
   128
 71
   155
 72
   210
 73
   197
  0
VERTEX
  8
11TYP02-KNOBS
  5
FEE
 10
0.0
 20
0.0
 30
0.0
 70
   128
 71
  -203
 72
   210
 73
   202
  0
VERTEX
  8
11TYP02-KNOBS
  5
FEF
 10
0.0
 20
0.0
 30
0.0
 70
   128
 71
   197
 72
  -210
 73
   203
  0
VERTEX
  8
11TYP02-KNOBS
  5
FF0
 10
0.0
 20
0.0
 30
0.0
 70
   128
 71
   205
 72
  -203
 73
   204
  0
VERTEX
  8
11TYP02-KNOBS
  5
FF1
 10
0.0
 20
0.0
 30
0.0
 70
   128
 71
   202
 72
  -204
 73
   203
  0
VERTEX
  8
11TYP02-KNOBS
  5
FF2
 10
0.0
 20
0.0
 30
0.0
 70
   128
 71
   200
 72
  -205
 73
   207
  0
VERTEX
  8
11TYP02-KNOBS
  5
FF3
 10
0.0
 20
0.0
 30
0.0
 70
   128
 71
   204
 72
  -207
 73
   205
  0
VERTEX
  8
11TYP02-KNOBS
  5
FF4
 10
0.0
 20
0.0
 30
0.0
 70
   128
 71
   206
 72
  -200
 73
   208
  0
VERTEX
  8
11TYP02-KNOBS
  5
FF5
 10
0.0
 20
0.0
 30
0.0
 70
   128
 71
   207
 72
  -208
 73
   200
  0
VERTEX
  8
11TYP02-KNOBS
  5
FF6
 10
0.0
 20
0.0
 30
0.0
 70
   128
 71
   155
 72
   209
 73
   210
  0
VERTEX
  8
11TYP02-KNOBS
  5
FF7
 10
0.0
 20
0.0
 30
0.0
 70
   128
 71
  -210
 72
   212
 73
   202
  0
VERTEX
  8
11TYP02-KNOBS
  5
FF8
 10
0.0
 20
0.0
 30
0.0
 70
   128
 71
   209
 72
  -212
 73
   210
  0
VERTEX
  8
11TYP02-KNOBS
  5
FF9
 10
0.0
 20
0.0
 30
0.0
 70
   128
 71
   204
 72
  -202
 73
   213
  0
VERTEX
  8
11TYP02-KNOBS
  5
FFA
 10
0.0
 20
0.0
 30
0.0
 70
   128
 71
   212
 72
  -213
 73
   202
  0
VERTEX
  8
11TYP02-KNOBS
  5
FFB
 10
0.0
 20
0.0
 30
0.0
 70
   128
 71
   207
 72
  -204
 73
   211
  0
VERTEX
  8
11TYP02-KNOBS
  5
FFC
 10
0.0
 20
0.0
 30
0.0
 70
   128
 71
   213
 72
  -211
 73
   204
  0
VERTEX
  8
11TYP02-KNOBS
  5
FFD
 10
0.0
 20
0.0
 30
0.0
 70
   128
 71
   208
 72
  -207
 73
   216
  0
VERTEX
  8
11TYP02-KNOBS
  5
FFE
 10
0.0
 20
0.0
 30
0.0
 70
   128
 71
   211
 72
  -216
 73
   207
  0
VERTEX
  8
11TYP02-KNOBS
  5
FFF
 10
0.0
 20
0.0
 30
0.0
 70
   128
 71
   155
 72
   218
 73
   209
  0
VERTEX
  8
11TYP02-KNOBS
  5
1000
 10
0.0
 20
0.0
 30
0.0
 70
   128
 71
  -209
 72
   221
 73
   212
  0
VERTEX
  8
11TYP02-KNOBS
  5
1001
 10
0.0
 20
0.0
 30
0.0
 70
   128
 71
   218
 72
  -221
 73
   209
  0
VERTEX
  8
11TYP02-KNOBS
  5
1002
 10
0.0
 20
0.0
 30
0.0
 70
   128
 71
   213
 72
  -212
 73
   214
  0
VERTEX
  8
11TYP02-KNOBS
  5
1003
 10
0.0
 20
0.0
 30
0.0
 70
   128
 71
   221
 72
  -214
 73
   212
  0
VERTEX
  8
11TYP02-KNOBS
  5
1004
 10
0.0
 20
0.0
 30
0.0
 70
   128
 71
   211
 72
  -213
 73
   215
  0
VERTEX
  8
11TYP02-KNOBS
  5
1005
 10
0.0
 20
0.0
 30
0.0
 70
   128
 71
   214
 72
  -215
 73
   213
  0
VERTEX
  8
11TYP02-KNOBS
  5
1006
 10
0.0
 20
0.0
 30
0.0
 70
   128
 71
   216
 72
  -211
 73
   217
  0
VERTEX
  8
11TYP02-KNOBS
  5
1007
 10
0.0
 20
0.0
 30
0.0
 70
   128
 71
   215
 72
  -217
 73
   211
  0
VERTEX
  8
11TYP02-KNOBS
  5
1008
 10
0.0
 20
0.0
 30
0.0
 70
   128
 71
   155
 72
   219
 73
   218
  0
VERTEX
  8
11TYP02-KNOBS
  5
1009
 10
0.0
 20
0.0
 30
0.0
 70
   128
 71
  -218
 72
   223
 73
   221
  0
VERTEX
  8
11TYP02-KNOBS
  5
100A
 10
0.0
 20
0.0
 30
0.0
 70
   128
 71
   219
 72
  -223
 73
   218
  0
VERTEX
  8
11TYP02-KNOBS
  5
100B
 10
0.0
 20
0.0
 30
0.0
 70
   128
 71
   214
 72
  -221
 73
   220
  0
VERTEX
  8
11TYP02-KNOBS
  5
100C
 10
0.0
 20
0.0
 30
0.0
 70
   128
 71
   223
 72
  -220
 73
   221
  0
VERTEX
  8
11TYP02-KNOBS
  5
100D
 10
0.0
 20
0.0
 30
0.0
 70
   128
 71
   215
 72
  -214
 73
   226
  0
VERTEX
  8
11TYP02-KNOBS
  5
100E
 10
0.0
 20
0.0
 30
0.0
 70
   128
 71
   220
 72
  -226
 73
   214
  0
VERTEX
  8
11TYP02-KNOBS
  5
100F
 10
0.0
 20
0.0
 30
0.0
 70
   128
 71
   217
 72
  -215
 73
   222
  0
VERTEX
  8
11TYP02-KNOBS
  5
1010
 10
0.0
 20
0.0
 30
0.0
 70
   128
 71
   226
 72
  -222
 73
   215
  0
VERTEX
  8
11TYP02-KNOBS
  5
1011
 10
0.0
 20
0.0
 30
0.0
 70
   128
 71
   155
 72
   228
 73
   219
  0
VERTEX
  8
11TYP02-KNOBS
  5
1012
 10
0.0
 20
0.0
 30
0.0
 70
   128
 71
  -219
 72
   227
 73
   223
  0
VERTEX
  8
11TYP02-KNOBS
  5
1013
 10
0.0
 20
0.0
 30
0.0
 70
   128
 71
   228
 72
  -227
 73
   219
  0
VERTEX
  8
11TYP02-KNOBS
  5
1014
 10
0.0
 20
0.0
 30
0.0
 70
   128
 71
   220
 72
  -223
 73
   229
  0
VERTEX
  8
11TYP02-KNOBS
  5
1015
 10
0.0
 20
0.0
 30
0.0
 70
   128
 71
   227
 72
  -229
 73
   223
  0
VERTEX
  8
11TYP02-KNOBS
  5
1016
 10
0.0
 20
0.0
 30
0.0
 70
   128
 71
   226
 72
  -220
 73
   224
  0
VERTEX
  8
11TYP02-KNOBS
  5
1017
 10
0.0
 20
0.0
 30
0.0
 70
   128
 71
   229
 72
  -224
 73
   220
  0
VERTEX
  8
11TYP02-KNOBS
  5
1018
 10
0.0
 20
0.0
 30
0.0
 70
   128
 71
   222
 72
  -226
 73
   225
  0
VERTEX
  8
11TYP02-KNOBS
  5
1019
 10
0.0
 20
0.0
 30
0.0
 70
   128
 71
   224
 72
  -225
 73
   226
  0
VERTEX
  8
11TYP02-KNOBS
  5
101A
 10
0.0
 20
0.0
 30
0.0
 70
   128
 71
   155
 72
   232
 73
   228
  0
VERTEX
  8
11TYP02-KNOBS
  5
101B
 10
0.0
 20
0.0
 30
0.0
 70
   128
 71
  -228
 72
   233
 73
   227
  0
VERTEX
  8
11TYP02-KNOBS
  5
101C
 10
0.0
 20
0.0
 30
0.0
 70
   128
 71
   232
 72
  -233
 73
   228
  0
VERTEX
  8
11TYP02-KNOBS
  5
101D
 10
0.0
 20
0.0
 30
0.0
 70
   128
 71
   229
 72
  -227
 73
   234
  0
VERTEX
  8
11TYP02-KNOBS
  5
101E
 10
0.0
 20
0.0
 30
0.0
 70
   128
 71
   233
 72
  -234
 73
   227
  0
VERTEX
  8
11TYP02-KNOBS
  5
101F
 10
0.0
 20
0.0
 30
0.0
 70
   128
 71
   224
 72
  -229
 73
   235
  0
VERTEX
  8
11TYP02-KNOBS
  5
1020
 10
0.0
 20
0.0
 30
0.0
 70
   128
 71
   234
 72
  -235
 73
   229
  0
VERTEX
  8
11TYP02-KNOBS
  5
1021
 10
0.0
 20
0.0
 30
0.0
 70
   128
 71
   225
 72
  -224
 73
   230
  0
VERTEX
  8
11TYP02-KNOBS
  5
1022
 10
0.0
 20
0.0
 30
0.0
 70
   128
 71
   235
 72
  -230
 73
   224
  0
VERTEX
  8
11TYP02-KNOBS
  5
1023
 10
0.0
 20
0.0
 30
0.0
 70
   128
 71
   155
 72
   231
 73
   232
  0
VERTEX
  8
11TYP02-KNOBS
  5
1024
 10
0.0
 20
0.0
 30
0.0
 70
   128
 71
  -233
 72
   231
 73
   237
  0
VERTEX
  8
11TYP02-KNOBS
  5
1025
 10
0.0
 20
0.0
 30
0.0
 70
   128
 71
   232
 72
  -231
 73
   233
  0
VERTEX
  8
11TYP02-KNOBS
  5
1026
 10
0.0
 20
0.0
 30
0.0
 70
   128
 71
   234
 72
  -233
 73
   241
  0
VERTEX
  8
11TYP02-KNOBS
  5
1027
 10
0.0
 20
0.0
 30
0.0
 70
   128
 71
   237
 72
  -241
 73
   233
  0
VERTEX
  8
11TYP02-KNOBS
  5
1028
 10
0.0
 20
0.0
 30
0.0
 70
   128
 71
   235
 72
  -234
 73
   242
  0
VERTEX
  8
11TYP02-KNOBS
  5
1029
 10
0.0
 20
0.0
 30
0.0
 70
   128
 71
   241
 72
  -242
 73
   234
  0
VERTEX
  8
11TYP02-KNOBS
  5
102A
 10
0.0
 20
0.0
 30
0.0
 70
   128
 71
   230
 72
  -235
 73
   236
  0
VERTEX
  8
11TYP02-KNOBS
  5
102B
 10
0.0
 20
0.0
 30
0.0
 70
   128
 71
   242
 72
  -236
 73
   235
  0
VERTEX
  8
11TYP02-KNOBS
  5
102C
 10
0.0
 20
0.0
 30
0.0
 70
   128
 71
   155
 72
   238
 73
   231
  0
VERTEX
  8
11TYP02-KNOBS
  5
102D
 10
0.0
 20
0.0
 30
0.0
 70
   128
 71
  -231
 72
   239
 73
   237
  0
VERTEX
  8
11TYP02-KNOBS
  5
102E
 10
0.0
 20
0.0
 30
0.0
 70
   128
 71
   238
 72
  -239
 73
   231
  0
VERTEX
  8
11TYP02-KNOBS
  5
102F
 10
0.0
 20
0.0
 30
0.0
 70
   128
 71
   241
 72
  -237
 73
   240
  0
VERTEX
  8
11TYP02-KNOBS
  5
1030
 10
0.0
 20
0.0
 30
0.0
 70
   128
 71
   239
 72
  -240
 73
   237
  0
VERTEX
  8
11TYP02-KNOBS
  5
1031
 10
0.0
 20
0.0
 30
0.0
 70
   128
 71
   242
 72
  -241
 73
   125
  0
VERTEX
  8
11TYP02-KNOBS
  5
1032
 10
0.0
 20
0.0
 30
0.0
 70
   128
 71
   240
 72
  -125
 73
   241
  0
VERTEX
  8
11TYP02-KNOBS
  5
1033
 10
0.0
 20
0.0
 30
0.0
 70
   128
 71
   236
 72
  -242
 73
   124
  0
VERTEX
  8
11TYP02-KNOBS
  5
1034
 10
0.0
 20
0.0
 30
0.0
 70
   128
 71
   125
 72
  -124
 73
   242
  0
SEQEND
  8
11TYP02-KNOBS
  5
1035
  0
POLYLINE
  8
11TYP02-MAIN
  5
104F
 66
     1
 10
0.0
 20
0.0
 30
0.0
 70
    64
 71
    55
 72
    98
1001
AVE_ENTITY_MATERIAL
1002
{
1000

1002
{
1071
        0
1070
     0
1070
     0
1002
{
1070
     0
1070
     0
1070
     0
1040
0.0
1002
}
1070
     0
1070
     0
1002
{
1002
}
1002
}
1002
{
1002
}
1002
{
1002
}
1011
0.0
1021
0.0
1031
0.0
1011
1.0
1021
0.0
1031
0.0
1011
0.0
1021
1.0
1031
0.0
1011
0.0
1021
0.0
1031
1.0
1002
}
1001
AVE_FINISH
1002
{
1070
     0
1005
65B
1002
}
  0
VERTEX
  8
11TYP02-MAIN
  5
1050
 10
1.627
 20
14.42
 30
2.719
 70
   192
  0
VERTEX
  8
11TYP02-MAIN
  5
1051
 10
1.627
 20
1.988
 30
2.719
 70
   192
  0
VERTEX
  8
11TYP02-MAIN
  5
1052
 10
1.643
 20
1.988
 30
3.674
 70
   192
  0
VERTEX
  8
11TYP02-MAIN
  5
1053
 10
2.297
 20
1.988
 30
3.425
 70
   192
  0
VERTEX
  8
11TYP02-MAIN
  5
1054
 10
2.297
 20
14.42
 30
3.425
 70
   192
  0
VERTEX
  8
11TYP02-MAIN
  5
1055
 10
1.643
 20
14.42
 30
3.674
 70
   192
  0
VERTEX
  8
11TYP02-MAIN
  5
1056
 10
1.019
 20
1.677
 30
1.904
 70
   192
  0
VERTEX
  8
11TYP02-MAIN
  5
1057
 10
3.691
 20
14.731
 30
1.858
 70
   192
  0
VERTEX
  8
11TYP02-MAIN
  5
1058
 10
3.691
 20
1.677
 30
1.858
 70
   192
  0
VERTEX
  8
11TYP02-MAIN
  5
1059
 10
3.718
 20
1.677
 30
3.491
 70
   192
  0
VERTEX
  8
11TYP02-MAIN
  5
105A
 10
1.047
 20
14.731
 30
3.536
 70
   192
  0
VERTEX
  8
11TYP02-MAIN
  5
105B
 10
1.049
 20
1.677
 30
3.656
 70
   192
  0
VERTEX
  8
11TYP02-MAIN
  5
105C
 10
6.454
 20
14.731
 30
3.443
 70
   192
  0
VERTEX
  8
11TYP02-MAIN
  5
105D
 10
1.049
 20
14.731
 30
3.656
 70
   192
  0
VERTEX
  8
11TYP02-MAIN
  5
105E
 10
6.454
 20
1.677
 30
3.443
 70
   192
  0
VERTEX
  8
11TYP02-MAIN
  5
105F
 10
1.049
 20
14.726
 30
3.656
 70
   192
  0
VERTEX
  8
11TYP02-MAIN
  5
1060
 10
-0.106
 20
14.726
 30
3.676
 70
   192
  0
VERTEX
  8
11TYP02-MAIN
  5
1061
 10
-0.382
 20
16.112
 30
1.847
 70
   192
  0
VERTEX
  8
11TYP02-MAIN
  5
1062
 10
13.519
 20
16.703
 30
0.277
 70
   192
  0
VERTEX
  8
11TYP02-MAIN
  5
1063
 10
9.008
 20
16.703
 30
1.958
 70
   192
  0
VERTEX
  8
11TYP02-MAIN
  5
1064
 10
8.29
 20
16.112
 30
3.529
 70
   192
  0
VERTEX
  8
11TYP02-MAIN
  5
1065
 10
0.106
 20
-0.296
 30
3.493
 70
   192
  0
VERTEX
  8
11TYP02-MAIN
  5
1066
 10
8.123
 20
-0.296
 30
3.353
 70
   192
  0
VERTEX
  8
11TYP02-MAIN
  5
1067
 10
-0.382
 20
0.296
 30
1.847
 70
   192
  0
VERTEX
  8
11TYP02-MAIN
  5
1068
 10
13.519
 20
-0.296
 30
0.277
 70
   192
  0
VERTEX
  8
11TYP02-MAIN
  5
1069
 10
-0.409
 20
0.296
 30
0.281
 70
   192
  0
VERTEX
  8
11TYP02-MAIN
  5
106A
 10
13.737
 20
0.296
 30
0.274
 70
   192
  0
VERTEX
  8
11TYP02-MAIN
  5
106B
 10
9.183
 20
0.296
 30
2.122
 70
   192
  0
VERTEX
  8
11TYP02-MAIN
  5
106C
 10
9.008
 20
-0.296
 30
1.958
 70
   192
  0
VERTEX
  8
11TYP02-MAIN
  5
106D
 10
7.373
 20
15.422
 30
3.546
 70
   192
  0
VERTEX
  8
11TYP02-MAIN
  5
106E
 10
-0.106
 20
15.418
 30
3.676
 70
   192
  0
VERTEX
  8
11TYP02-MAIN
  5
106F
 10
6.457
 20
14.731
 30
3.562
 70
   192
  0
VERTEX
  8
11TYP02-MAIN
  5
1070
 10
7.373
 20
0.987
 30
3.546
 70
   192
  0
VERTEX
  8
11TYP02-MAIN
  5
1071
 10
-0.106
 20
0.296
 30
3.676
 70
   192
  0
VERTEX
  8
11TYP02-MAIN
  5
1072
 10
-0.106
 20
1.677
 30
3.676
 70
   192
  0
VERTEX
  8
11TYP02-MAIN
  5
1073
 10
6.457
 20
1.677
 30
3.562
 70
   192
  0
VERTEX
  8
11TYP02-MAIN
  5
1074
 10
-0.106
 20
0.987
 30
3.676
 70
   192
  0
VERTEX
  8
11TYP02-MAIN
  5
1075
 10
-0.19
 20
-0.296
 30
0.277
 70
   192
  0
VERTEX
  8
11TYP02-MAIN
  5
1076
 10
-0.163
 20
-0.296
 30
1.829
 70
   192
  0
VERTEX
  8
11TYP02-MAIN
  5
1077
 10
13.101
 20
-0.296
 30
1.45
 70
   192
  0
VERTEX
  8
11TYP02-MAIN
  5
1078
 10
0.106
 20
16.703
 30
3.493
 70
   192
  0
VERTEX
  8
11TYP02-MAIN
  5
1079
 10
13.101
 20
16.703
 30
1.45
 70
   192
  0
VERTEX
  8
11TYP02-MAIN
  5
107A
 10
-0.19
 20
16.703
 30
0.277
 70
   192
  0
VERTEX
  8
11TYP02-MAIN
  5
107B
 10
-0.163
 20
16.703
 30
1.829
 70
   192
  0
VERTEX
  8
11TYP02-MAIN
  5
107C
 10
8.123
 20
16.703
 30
3.353
 70
   192
  0
VERTEX
  8
11TYP02-MAIN
  5
107D
 10
-0.106
 20
16.112
 30
3.676
 70
   192
  0
VERTEX
  8
11TYP02-MAIN
  5
107E
 10
-0.409
 20
16.112
 30
0.281
 70
   192
  0
VERTEX
  8
11TYP02-MAIN
  5
107F
 10
13.737
 20
16.112
 30
0.274
 70
   192
  0
VERTEX
  8
11TYP02-MAIN
  5
1080
 10
13.318
 20
0.296
 30
1.607
 70
   192
  0
VERTEX
  8
11TYP02-MAIN
  5
1081
 10
13.318
 20
16.112
 30
1.607
 70
   192
  0
VERTEX
  8
11TYP02-MAIN
  5
1082
 10
9.183
 20
16.112
 30
2.122
 70
   192
  0
VERTEX
  8
11TYP02-MAIN
  5
1083
 10
8.29
 20
0.296
 30
3.529
 70
   192
  0
VERTEX
  8
11TYP02-MAIN
  5
1084
 10
1.019
 20
14.731
 30
1.904
 70
   192
  0
VERTEX
  8
11TYP02-MAIN
  5
1085
 10
3.718
 20
14.731
 30
3.491
 70
   192
  0
VERTEX
  8
11TYP02-MAIN
  5
1086
 10
1.047
 20
1.677
 30
3.536
 70
   192
  0
VERTEX
  8
11TYP02-MAIN
  5
1087
 10
0.0
 20
0.0
 30
0.0
 70
   128
 71
     6
 72
    -1
 73
     3
  0
VERTEX
  8
11TYP02-MAIN
  5
1088
 10
0.0
 20
0.0
 30
0.0
 70
   128
 71
     2
 72
    -3
 73
     1
  0
VERTEX
  8
11TYP02-MAIN
  5
1089
 10
0.0
 20
0.0
 30
0.0
 70
   128
 71
     5
 72
    -6
 73
     4
  0
VERTEX
  8
11TYP02-MAIN
  5
108A
 10
0.0
 20
0.0
 30
0.0
 70
   128
 71
     3
 72
    -4
 73
     6
  0
VERTEX
  8
11TYP02-MAIN
  5
108B
 10
0.0
 20
0.0
 30
0.0
 70
   128
 71
    53
 72
    -7
 73
    11
  0
VERTEX
  8
11TYP02-MAIN
  5
108C
 10
0.0
 20
0.0
 30
0.0
 70
   128
 71
    11
 72
    55
 73
    -7
  0
VERTEX
  8
11TYP02-MAIN
  5
108D
 10
0.0
 20
0.0
 30
0.0
 70
   128
 71
     7
 72
   -53
 73
    55
  0
VERTEX
  8
11TYP02-MAIN
  5
108E
 10
0.0
 20
0.0
 30
0.0
 70
   128
 71
    11
 72
   -55
 73
    53
  0
VERTEX
  8
11TYP02-MAIN
  5
108F
 10
0.0
 20
0.0
 30
0.0
 70
   128
 71
    54
 72
   -10
 73
     8
  0
VERTEX
  8
11TYP02-MAIN
  5
1090
 10
0.0
 20
0.0
 30
0.0
 70
   128
 71
     8
 72
     9
 73
   -10
  0
VERTEX
  8
11TYP02-MAIN
  5
1091
 10
0.0
 20
0.0
 30
0.0
 70
   128
 71
    10
 72
   -54
 73
     9
  0
VERTEX
  8
11TYP02-MAIN
  5
1092
 10
0.0
 20
0.0
 30
0.0
 70
   128
 71
     8
 72
    -9
 73
    54
  0
VERTEX
  8
11TYP02-MAIN
  5
1093
 10
0.0
 20
0.0
 30
0.0
 70
   128
 71
    15
 72
    55
 73
   -12
  0
VERTEX
  8
11TYP02-MAIN
  5
1094
 10
0.0
 20
0.0
 30
0.0
 70
   128
 71
    12
 72
    36
 73
   -15
  0
VERTEX
  8
11TYP02-MAIN
  5
1095
 10
0.0
 20
0.0
 30
0.0
 70
   128
 71
    55
 72
    11
 73
   -14
  0
VERTEX
  8
11TYP02-MAIN
  5
1096
 10
0.0
 20
0.0
 30
0.0
 70
   128
 71
    14
 72
    12
 73
   -55
  0
VERTEX
  8
11TYP02-MAIN
  5
1097
 10
0.0
 20
0.0
 30
0.0
 70
   128
 71
    11
 72
    13
 73
   -32
  0
VERTEX
  8
11TYP02-MAIN
  5
1098
 10
0.0
 20
0.0
 30
0.0
 70
   128
 71
    32
 72
    14
 73
   -11
  0
VERTEX
  8
11TYP02-MAIN
  5
1099
 10
0.0
 20
0.0
 30
0.0
 70
   128
 71
    13
 72
    15
 73
   -36
  0
VERTEX
  8
11TYP02-MAIN
  5
109A
 10
0.0
 20
0.0
 30
0.0
 70
   128
 71
    36
 72
    32
 73
   -13
  0
VERTEX
  8
11TYP02-MAIN
  5
109B
 10
0.0
 20
0.0
 30
0.0
 70
   128
 71
    16
 72
    12
 73
   -35
  0
VERTEX
  8
11TYP02-MAIN
  5
109C
 10
0.0
 20
0.0
 30
0.0
 70
   128
 71
    35
 72
    17
 73
   -16
  0
VERTEX
  8
11TYP02-MAIN
  5
109D
 10
0.0
 20
0.0
 30
0.0
 70
   128
 71
    17
 72
    35
 73
   -12
  0
VERTEX
  8
11TYP02-MAIN
  5
109E
 10
0.0
 20
0.0
 30
0.0
 70
   128
 71
    12
 72
    16
 73
   -17
  0
VERTEX
  8
11TYP02-MAIN
  5
109F
 10
0.0
 20
0.0
 30
0.0
 70
   128
 71
   -21
 72
    41
 73
    46
  0
VERTEX
  8
11TYP02-MAIN
  5
10A0
 10
0.0
 20
0.0
 30
0.0
 70
   128
 71
    21
 72
    45
 73
   -41
  0
VERTEX
  8
11TYP02-MAIN
  5
10A1
 10
0.0
 20
0.0
 30
0.0
 70
   128
 71
   -18
 72
    41
 73
    44
  0
VERTEX
  8
11TYP02-MAIN
  5
10A2
 10
0.0
 20
0.0
 30
0.0
 70
   128
 71
    18
 72
    46
 73
   -41
  0
VERTEX
  8
11TYP02-MAIN
  5
10A3
 10
0.0
 20
0.0
 30
0.0
 70
   128
 71
   -47
 72
    44
 73
    43
  0
VERTEX
  8
11TYP02-MAIN
  5
10A4
 10
0.0
 20
0.0
 30
0.0
 70
   128
 71
    47
 72
    18
 73
   -44
  0
VERTEX
  8
11TYP02-MAIN
  5
10A5
 10
0.0
 20
0.0
 30
0.0
 70
   128
 71
   -47
 72
    19
 73
    48
  0
VERTEX
  8
11TYP02-MAIN
  5
10A6
 10
0.0
 20
0.0
 30
0.0
 70
   128
 71
    47
 72
    43
 73
   -19
  0
VERTEX
  8
11TYP02-MAIN
  5
10A7
 10
0.0
 20
0.0
 30
0.0
 70
   128
 71
   -48
 72
    42
 73
    50
  0
VERTEX
  8
11TYP02-MAIN
  5
10A8
 10
0.0
 20
0.0
 30
0.0
 70
   128
 71
    48
 72
    19
 73
   -42
  0
VERTEX
  8
11TYP02-MAIN
  5
10A9
 10
0.0
 20
0.0
 30
0.0
 70
   128
 71
   -51
 72
    42
 73
    20
  0
VERTEX
  8
11TYP02-MAIN
  5
10AA
 10
0.0
 20
0.0
 30
0.0
 70
   128
 71
    51
 72
    50
 73
   -42
  0
VERTEX
  8
11TYP02-MAIN
  5
10AB
 10
0.0
 20
0.0
 30
0.0
 70
   128
 71
   -51
 72
    45
 73
    21
  0
VERTEX
  8
11TYP02-MAIN
  5
10AC
 10
0.0
 20
0.0
 30
0.0
 70
   128
 71
    51
 72
    20
 73
   -45
  0
VERTEX
  8
11TYP02-MAIN
  5
10AD
 10
0.0
 20
0.0
 30
0.0
 70
   128
 71
   -22
 72
    52
 73
    34
  0
VERTEX
  8
11TYP02-MAIN
  5
10AE
 10
0.0
 20
0.0
 30
0.0
 70
   128
 71
    23
 72
   -52
 73
    22
  0
VERTEX
  8
11TYP02-MAIN
  5
10AF
 10
0.0
 20
0.0
 30
0.0
 70
   128
 71
   -22
 72
    24
 73
    39
  0
VERTEX
  8
11TYP02-MAIN
  5
10B0
 10
0.0
 20
0.0
 30
0.0
 70
   128
 71
    34
 72
   -24
 73
    22
  0
VERTEX
  8
11TYP02-MAIN
  5
10B1
 10
0.0
 20
0.0
 30
0.0
 70
   128
 71
   -39
 72
    26
 73
    38
  0
VERTEX
  8
11TYP02-MAIN
  5
10B2
 10
0.0
 20
0.0
 30
0.0
 70
   128
 71
    24
 72
   -26
 73
    39
  0
VERTEX
  8
11TYP02-MAIN
  5
10B3
 10
0.0
 20
0.0
 30
0.0
 70
   128
 71
   -25
 72
    26
 73
    27
  0
VERTEX
  8
11TYP02-MAIN
  5
10B4
 10
0.0
 20
0.0
 30
0.0
 70
   128
 71
    38
 72
   -26
 73
    25
  0
VERTEX
  8
11TYP02-MAIN
  5
10B5
 10
0.0
 20
0.0
 30
0.0
 70
   128
 71
   -40
 72
    27
 73
    49
  0
VERTEX
  8
11TYP02-MAIN
  5
10B6
 10
0.0
 20
0.0
 30
0.0
 70
   128
 71
    25
 72
   -27
 73
    40
  0
VERTEX
  8
11TYP02-MAIN
  5
10B7
 10
0.0
 20
0.0
 30
0.0
 70
   128
 71
   -40
 72
    28
 73
    29
  0
VERTEX
  8
11TYP02-MAIN
  5
10B8
 10
0.0
 20
0.0
 30
0.0
 70
   128
 71
    49
 72
   -28
 73
    40
  0
VERTEX
  8
11TYP02-MAIN
  5
10B9
 10
0.0
 20
0.0
 30
0.0
 70
   128
 71
   -23
 72
    28
 73
    52
  0
VERTEX
  8
11TYP02-MAIN
  5
10BA
 10
0.0
 20
0.0
 30
0.0
 70
   128
 71
    29
 72
   -28
 73
    23
  0
VERTEX
  8
11TYP02-MAIN
  5
10BB
 10
0.0
 20
0.0
 30
0.0
 70
   128
 71
   -30
 72
    46
 73
    31
  0
VERTEX
  8
11TYP02-MAIN
  5
10BC
 10
0.0
 20
0.0
 30
0.0
 70
   128
 71
    30
 72
    21
 73
   -46
  0
VERTEX
  8
11TYP02-MAIN
  5
10BD
 10
0.0
 20
0.0
 30
0.0
 70
   128
 71
   -32
 72
    31
 73
    17
  0
VERTEX
  8
11TYP02-MAIN
  5
10BE
 10
0.0
 20
0.0
 30
0.0
 70
   128
 71
    32
 72
    30
 73
   -31
  0
VERTEX
  8
11TYP02-MAIN
  5
10BF
 10
0.0
 20
0.0
 30
0.0
 70
   128
 71
   -52
 72
    30
 73
    33
  0
VERTEX
  8
11TYP02-MAIN
  5
10C0
 10
0.0
 20
0.0
 30
0.0
 70
   128
 71
    52
 72
    21
 73
   -30
  0
VERTEX
  8
11TYP02-MAIN
  5
10C1
 10
0.0
 20
0.0
 30
0.0
 70
   128
 71
   -33
 72
    32
 73
    36
  0
VERTEX
  8
11TYP02-MAIN
  5
10C2
 10
0.0
 20
0.0
 30
0.0
 70
   128
 71
    33
 72
    30
 73
   -32
  0
VERTEX
  8
11TYP02-MAIN
  5
10C3
 10
0.0
 20
0.0
 30
0.0
 70
   128
 71
   -34
 72
    33
 73
    37
  0
VERTEX
  8
11TYP02-MAIN
  5
10C4
 10
0.0
 20
0.0
 30
0.0
 70
   128
 71
    34
 72
    52
 73
   -33
  0
VERTEX
  8
11TYP02-MAIN
  5
10C5
 10
0.0
 20
0.0
 30
0.0
 70
   128
 71
   -37
 72
    36
 73
    35
  0
VERTEX
  8
11TYP02-MAIN
  5
10C6
 10
0.0
 20
0.0
 30
0.0
 70
   128
 71
    37
 72
    33
 73
   -36
  0
VERTEX
  8
11TYP02-MAIN
  5
10C7
 10
0.0
 20
0.0
 30
0.0
 70
   128
 71
    23
 72
    22
 73
   -38
  0
VERTEX
  8
11TYP02-MAIN
  5
10C8
 10
0.0
 20
0.0
 30
0.0
 70
   128
 71
    22
 72
    39
 73
    38
  0
VERTEX
  8
11TYP02-MAIN
  5
10C9
 10
0.0
 20
0.0
 30
0.0
 70
   128
 71
    25
 72
    40
 73
    38
  0
VERTEX
  8
11TYP02-MAIN
  5
10CA
 10
0.0
 20
0.0
 30
0.0
 70
   128
 71
    40
 72
    29
 73
    38
  0
VERTEX
  8
11TYP02-MAIN
  5
10CB
 10
0.0
 20
0.0
 30
0.0
 70
   128
 71
    29
 72
   -23
 73
    38
  0
VERTEX
  8
11TYP02-MAIN
  5
10CC
 10
0.0
 20
0.0
 30
0.0
 70
   128
 71
    23
 72
    22
 73
   -38
  0
VERTEX
  8
11TYP02-MAIN
  5
10CD
 10
0.0
 20
0.0
 30
0.0
 70
   128
 71
    22
 72
    39
 73
    38
  0
VERTEX
  8
11TYP02-MAIN
  5
10CE
 10
0.0
 20
0.0
 30
0.0
 70
   128
 71
    25
 72
    40
 73
    38
  0
VERTEX
  8
11TYP02-MAIN
  5
10CF
 10
0.0
 20
0.0
 30
0.0
 70
   128
 71
    40
 72
    29
 73
    38
  0
VERTEX
  8
11TYP02-MAIN
  5
10D0
 10
0.0
 20
0.0
 30
0.0
 70
   128
 71
    29
 72
   -23
 73
    38
  0
VERTEX
  8
11TYP02-MAIN
  5
10D1
 10
0.0
 20
0.0
 30
0.0
 70
   128
 71
    41
 72
   -45
 73
    43
  0
VERTEX
  8
11TYP02-MAIN
  5
10D2
 10
0.0
 20
0.0
 30
0.0
 70
   128
 71
    44
 72
    41
 73
    43
  0
VERTEX
  8
11TYP02-MAIN
  5
10D3
 10
0.0
 20
0.0
 30
0.0
 70
   128
 71
    42
 72
    19
 73
    43
  0
VERTEX
  8
11TYP02-MAIN
  5
10D4
 10
0.0
 20
0.0
 30
0.0
 70
   128
 71
    20
 72
    42
 73
    43
  0
VERTEX
  8
11TYP02-MAIN
  5
10D5
 10
0.0
 20
0.0
 30
0.0
 70
   128
 71
    45
 72
    20
 73
   -43
  0
VERTEX
  8
11TYP02-MAIN
  5
10D6
 10
0.0
 20
0.0
 30
0.0
 70
   128
 71
    41
 72
   -45
 73
    43
  0
VERTEX
  8
11TYP02-MAIN
  5
10D7
 10
0.0
 20
0.0
 30
0.0
 70
   128
 71
    44
 72
    41
 73
    43
  0
VERTEX
  8
11TYP02-MAIN
  5
10D8
 10
0.0
 20
0.0
 30
0.0
 70
   128
 71
    42
 72
    19
 73
    43
  0
VERTEX
  8
11TYP02-MAIN
  5
10D9
 10
0.0
 20
0.0
 30
0.0
 70
   128
 71
    20
 72
    42
 73
    43
  0
VERTEX
  8
11TYP02-MAIN
  5
10DA
 10
0.0
 20
0.0
 30
0.0
 70
   128
 71
    45
 72
    20
 73
   -43
  0
VERTEX
  8
11TYP02-MAIN
  5
10DB
 10
0.0
 20
0.0
 30
0.0
 70
   128
 71
    47
 72
    46
 73
   -34
  0
VERTEX
  8
11TYP02-MAIN
  5
10DC
 10
0.0
 20
0.0
 30
0.0
 70
   128
 71
    34
 72
    26
 73
   -47
  0
VERTEX
  8
11TYP02-MAIN
  5
10DD
 10
0.0
 20
0.0
 30
0.0
 70
   128
 71
    48
 72
    50
 73
   -49
  0
VERTEX
  8
11TYP02-MAIN
  5
10DE
 10
0.0
 20
0.0
 30
0.0
 70
   128
 71
    49
 72
    27
 73
   -48
  0
VERTEX
  8
11TYP02-MAIN
  5
10DF
 10
0.0
 20
0.0
 30
0.0
 70
   128
 71
    49
 72
   -50
 73
    28
  0
VERTEX
  8
11TYP02-MAIN
  5
10E0
 10
0.0
 20
0.0
 30
0.0
 70
   128
 71
    51
 72
   -28
 73
    50
  0
VERTEX
  8
11TYP02-MAIN
  5
10E1
 10
0.0
 20
0.0
 30
0.0
 70
   128
 71
    28
 72
   -51
 73
    52
  0
VERTEX
  8
11TYP02-MAIN
  5
10E2
 10
0.0
 20
0.0
 30
0.0
 70
   128
 71
    21
 72
   -52
 73
    51
  0
VERTEX
  8
11TYP02-MAIN
  5
10E3
 10
0.0
 20
0.0
 30
0.0
 70
   128
 71
     8
 72
   -53
 73
     9
  0
VERTEX
  8
11TYP02-MAIN
  5
10E4
 10
0.0
 20
0.0
 30
0.0
 70
   128
 71
     7
 72
    -9
 73
    53
  0
VERTEX
  8
11TYP02-MAIN
  5
10E5
 10
0.0
 20
0.0
 30
0.0
 70
   128
 71
    53
 72
    -8
 73
    11
  0
VERTEX
  8
11TYP02-MAIN
  5
10E6
 10
0.0
 20
0.0
 30
0.0
 70
   128
 71
    54
 72
   -11
 73
     8
  0
VERTEX
  8
11TYP02-MAIN
  5
10E7
 10
0.0
 20
0.0
 30
0.0
 70
   128
 71
     9
 72
     7
 73
   -55
  0
VERTEX
  8
11TYP02-MAIN
  5
10E8
 10
0.0
 20
0.0
 30
0.0
 70
   128
 71
    55
 72
    10
 73
    -9
  0
SEQEND
  8
11TYP02-MAIN
  5
10E9
  0
POLYLINE
  8
11TYP02-PANEL
  5
10EA
 66
     1
 10
0.0
 20
0.0
 30
0.0
 70
    64
 71
     8
 72
    12
1001
AVE_ENTITY_MATERIAL
1002
{
1000

1002
{
1071
        0
1070
     0
1070
     0
1002
{
1070
     0
1070
     0
1070
     0
1040
0.0
1002
}
1070
     0
1070
     0
1002
{
1002
}
1002
}
1002
{
1002
}
1002
{
1002
}
1011
0.0
1021
0.0
1031
0.0
1011
1.0
1021
0.0
1031
0.0
1011
0.0
1021
1.0
1031
0.0
1011
0.0
1021
0.0
1031
1.0
1002
}
1001
AVE_FINISH
1002
{
1070
     0
1005
1100
1002
}
  0
VERTEX
  8
11TYP02-PANEL
  5
10EB
 10
8.663
 20
2.852
 30
3.085
 70
   192
  0
VERTEX
  8
11TYP02-PANEL
  5
10EC
 10
8.571
 20
2.852
 30
3.088
 70
   192
  0
VERTEX
  8
11TYP02-PANEL
  5
10ED
 10
8.571
 20
13.57
 30
3.088
 70
   192
  0
VERTEX
  8
11TYP02-PANEL
  5
10EE
 10
8.663
 20
13.57
 30
3.085
 70
   192
  0
VERTEX
  8
11TYP02-PANEL
  5
10EF
 10
8.849
 20
13.556
 30
2.648
 70
   192
  0
VERTEX
  8
11TYP02-PANEL
  5
10F0
 10
8.941
 20
13.556
 30
2.647
 70
   192
  0
VERTEX
  8
11TYP02-PANEL
  5
10F1
 10
8.849
 20
2.837
 30
2.648
 70
   192
  0
VERTEX
  8
11TYP02-PANEL
  5
10F2
 10
8.941
 20
2.837
 30
2.647
 70
   192
  0
VERTEX
  8
11TYP02-PANEL
  5
10F3
 10
0.0
 20
0.0
 30
0.0
 70
   128
 71
    -7
 72
     1
 73
     2
  0
VERTEX
  8
11TYP02-PANEL
  5
10F4
 10
0.0
 20
0.0
 30
0.0
 70
   128
 71
     7
 72
     8
 73
    -1
  0
VERTEX
  8
11TYP02-PANEL
  5
10F5
 10
0.0
 20
0.0
 30
0.0
 70
   128
 71
     1
 72
     4
 73
    -3
  0
VERTEX
  8
11TYP02-PANEL
  5
10F6
 10
0.0
 20
0.0
 30
0.0
 70
   128
 71
     3
 72
     2
 73
    -1
  0
VERTEX
  8
11TYP02-PANEL
  5
10F7
 10
0.0
 20
0.0
 30
0.0
 70
   128
 71
    -5
 72
     4
 73
     6
  0
VERTEX
  8
11TYP02-PANEL
  5
10F8
 10
0.0
 20
0.0
 30
0.0
 70
   128
 71
     5
 72
     3
 73
    -4
  0
VERTEX
  8
11TYP02-PANEL
  5
10F9
 10
0.0
 20
0.0
 30
0.0
 70
   128
 71
     6
 72
     8
 73
    -7
  0
VERTEX
  8
11TYP02-PANEL
  5
10FA
 10
0.0
 20
0.0
 30
0.0
 70
   128
 71
     7
 72
     5
 73
    -6
  0
VERTEX
  8
11TYP02-PANEL
  5
10FB
 10
0.0
 20
0.0
 30
0.0
 70
   128
 71
     4
 72
     1
 73
    -8
  0
VERTEX
  8
11TYP02-PANEL
  5
10FC
 10
0.0
 20
0.0
 30
0.0
 70
   128
 71
     8
 72
     6
 73
    -4
  0
VERTEX
  8
11TYP02-PANEL
  5
10FD
 10
0.0
 20
0.0
 30
0.0
 70
   128
 71
     2
 72
    -3
 73
     7
  0
VERTEX
  8
11TYP02-PANEL
  5
10FE
 10
0.0
 20
0.0
 30
0.0
 70
   128
 71
     5
 72
    -7
 73
     3
  0
SEQEND
  8
11TYP02-PANEL
  5
10FF
  0
POLYLINE
  8
11TYP02-ROLL
  5
1119
 66
     1
 10
0.0
 20
0.0
 30
0.0
 70
    64
 71
    72
 72
    72
1001
AVE_ENTITY_MATERIAL
1002
{
1000

1002
{
1071
        0
1070
     0
1070
     0
1002
{
1070
     0
1070
     0
1070
     0
1040
0.0
1002
}
1070
     0
1070
     0
1002
{
1002
}
1002
}
1002
{
1002
}
1002
{
1002
}
1011
0.0
1021
0.0
1031
0.0
1011
1.0
1021
0.0
1031
0.0
1011
0.0
1021
1.0
1031
0.0
1011
0.0
1021
0.0
1031
1.0
1002
}
1001
AVE_FINISH
1002
{
1070
     0
1005
11AB
1002
}
  0
VERTEX
  8
11TYP02-ROLL
  5
111A
 10
2.272
 20
14.42
 30
2.032
 70
   192
  0
VERTEX
  8
11TYP02-ROLL
  5
111B
 10
2.396
 20
1.988
 30
2.018
 70
   192
  0
VERTEX
  8
11TYP02-ROLL
  5
111C
 10
2.272
 20
1.988
 30
2.032
 70
   192
  0
VERTEX
  8
11TYP02-ROLL
  5
111D
 10
2.155
 20
14.42
 30
2.065
 70
   192
  0
VERTEX
  8
11TYP02-ROLL
  5
111E
 10
2.155
 20
1.988
 30
2.065
 70
   192
  0
VERTEX
  8
11TYP02-ROLL
  5
111F
 10
1.943
 20
14.42
 30
2.191
 70
   192
  0
VERTEX
  8
11TYP02-ROLL
  5
1120
 10
2.043
 20
1.988
 30
2.119
 70
   192
  0
VERTEX
  8
11TYP02-ROLL
  5
1121
 10
2.043
 20
14.42
 30
2.119
 70
   192
  0
VERTEX
  8
11TYP02-ROLL
  5
1122
 10
1.943
 20
1.988
 30
2.191
 70
   192
  0
VERTEX
  8
11TYP02-ROLL
  5
1123
 10
1.858
 20
14.42
 30
2.28
 70
   192
  0
VERTEX
  8
11TYP02-ROLL
  5
1124
 10
1.858
 20
1.988
 30
2.28
 70
   192
  0
VERTEX
  8
11TYP02-ROLL
  5
1125
 10
1.789
 20
14.42
 30
2.382
 70
   192
  0
VERTEX
  8
11TYP02-ROLL
  5
1126
 10
1.789
 20
1.988
 30
2.382
 70
   192
  0
VERTEX
  8
11TYP02-ROLL
  5
1127
 10
1.709
 20
1.988
 30
2.615
 70
   192
  0
VERTEX
  8
11TYP02-ROLL
  5
1128
 10
1.738
 20
1.988
 30
2.495
 70
   192
  0
VERTEX
  8
11TYP02-ROLL
  5
1129
 10
1.738
 20
14.42
 30
2.495
 70
   192
  0
VERTEX
  8
11TYP02-ROLL
  5
112A
 10
1.709
 20
14.42
 30
2.615
 70
   192
  0
VERTEX
  8
11TYP02-ROLL
  5
112B
 10
1.7
 20
1.988
 30
2.738
 70
   192
  0
VERTEX
  8
11TYP02-ROLL
  5
112C
 10
1.7
 20
14.42
 30
2.738
 70
   192
  0
VERTEX
  8
11TYP02-ROLL
  5
112D
 10
1.713
 20
14.42
 30
2.861
 70
   192
  0
VERTEX
  8
11TYP02-ROLL
  5
112E
 10
1.747
 20
14.42
 30
2.98
 70
   192
  0
VERTEX
  8
11TYP02-ROLL
  5
112F
 10
1.747
 20
1.988
 30
2.98
 70
   192
  0
VERTEX
  8
11TYP02-ROLL
  5
1130
 10
1.713
 20
1.988
 30
2.861
 70
   192
  0
VERTEX
  8
11TYP02-ROLL
  5
1131
 10
1.802
 20
1.988
 30
3.09
 70
   192
  0
VERTEX
  8
11TYP02-ROLL
  5
1132
 10
1.802
 20
14.42
 30
3.09
 70
   192
  0
VERTEX
  8
11TYP02-ROLL
  5
1133
 10
1.874
 20
14.42
 30
3.19
 70
   192
  0
VERTEX
  8
11TYP02-ROLL
  5
1134
 10
1.963
 20
1.988
 30
3.276
 70
   192
  0
VERTEX
  8
11TYP02-ROLL
  5
1135
 10
1.874
 20
1.988
 30
3.19
 70
   192
  0
VERTEX
  8
11TYP02-ROLL
  5
1136
 10
1.963
 20
14.42
 30
3.276
 70
   192
  0
VERTEX
  8
11TYP02-ROLL
  5
1137
 10
2.065
 20
1.988
 30
3.344
 70
   192
  0
VERTEX
  8
11TYP02-ROLL
  5
1138
 10
2.065
 20
14.42
 30
3.344
 70
   192
  0
VERTEX
  8
11TYP02-ROLL
  5
1139
 10
2.177
 20
14.42
 30
3.395
 70
   192
  0
VERTEX
  8
11TYP02-ROLL
  5
113A
 10
2.177
 20
1.988
 30
3.395
 70
   192
  0
VERTEX
  8
11TYP02-ROLL
  5
113B
 10
2.297
 20
1.988
 30
3.425
 70
   192
  0
VERTEX
  8
11TYP02-ROLL
  5
113C
 10
2.42
 20
1.988
 30
3.433
 70
   192
  0
VERTEX
  8
11TYP02-ROLL
  5
113D
 10
2.297
 20
14.42
 30
3.425
 70
   192
  0
VERTEX
  8
11TYP02-ROLL
  5
113E
 10
2.42
 20
14.42
 30
3.433
 70
   192
  0
VERTEX
  8
11TYP02-ROLL
  5
113F
 10
2.542
 20
14.42
 30
3.42
 70
   192
  0
VERTEX
  8
11TYP02-ROLL
  5
1140
 10
2.542
 20
1.988
 30
3.42
 70
   192
  0
VERTEX
  8
11TYP02-ROLL
  5
1141
 10
2.661
 20
14.42
 30
3.386
 70
   192
  0
VERTEX
  8
11TYP02-ROLL
  5
1142
 10
2.773
 20
1.988
 30
3.332
 70
   192
  0
VERTEX
  8
11TYP02-ROLL
  5
1143
 10
2.661
 20
1.988
 30
3.386
 70
   192
  0
VERTEX
  8
11TYP02-ROLL
  5
1144
 10
2.872
 20
14.42
 30
3.259
 70
   192
  0
VERTEX
  8
11TYP02-ROLL
  5
1145
 10
2.872
 20
1.988
 30
3.259
 70
   192
  0
VERTEX
  8
11TYP02-ROLL
  5
1146
 10
2.773
 20
14.42
 30
3.332
 70
   192
  0
VERTEX
  8
11TYP02-ROLL
  5
1147
 10
2.957
 20
14.42
 30
3.17
 70
   192
  0
VERTEX
  8
11TYP02-ROLL
  5
1148
 10
2.957
 20
1.988
 30
3.17
 70
   192
  0
VERTEX
  8
11TYP02-ROLL
  5
1149
 10
3.027
 20
14.42
 30
3.068
 70
   192
  0
VERTEX
  8
11TYP02-ROLL
  5
114A
 10
3.027
 20
1.988
 30
3.068
 70
   192
  0
VERTEX
  8
11TYP02-ROLL
  5
114B
 10
3.076
 20
1.988
 30
2.956
 70
   192
  0
VERTEX
  8
11TYP02-ROLL
  5
114C
 10
3.076
 20
14.42
 30
2.956
 70
   192
  0
VERTEX
  8
11TYP02-ROLL
  5
114D
 10
3.106
 20
1.988
 30
2.837
 70
   192
  0
VERTEX
  8
11TYP02-ROLL
  5
114E
 10
3.106
 20
14.42
 30
2.837
 70
   192
  0
VERTEX
  8
11TYP02-ROLL
  5
114F
 10
3.103
 20
14.42
 30
2.591
 70
   192
  0
VERTEX
  8
11TYP02-ROLL
  5
1150
 10
3.103
 20
1.988
 30
2.591
 70
   192
  0
VERTEX
  8
11TYP02-ROLL
  5
1151
 10
3.115
 20
1.988
 30
2.713
 70
   192
  0
VERTEX
  8
11TYP02-ROLL
  5
1152
 10
3.115
 20
14.42
 30
2.713
 70
   192
  0
VERTEX
  8
11TYP02-ROLL
  5
1153
 10
3.014
 20
14.42
 30
2.362
 70
   192
  0
VERTEX
  8
11TYP02-ROLL
  5
1154
 10
3.014
 20
1.988
 30
2.362
 70
   192
  0
VERTEX
  8
11TYP02-ROLL
  5
1155
 10
3.068
 20
1.988
 30
2.472
 70
   192
  0
VERTEX
  8
11TYP02-ROLL
  5
1156
 10
3.068
 20
14.42
 30
2.472
 70
   192
  0
VERTEX
  8
11TYP02-ROLL
  5
1157
 10
2.942
 20
1.988
 30
2.262
 70
   192
  0
VERTEX
  8
11TYP02-ROLL
  5
1158
 10
2.942
 20
14.42
 30
2.262
 70
   192
  0
VERTEX
  8
11TYP02-ROLL
  5
1159
 10
2.853
 20
14.42
 30
2.176
 70
   192
  0
VERTEX
  8
11TYP02-ROLL
  5
115A
 10
2.751
 20
1.988
 30
2.107
 70
   192
  0
VERTEX
  8
11TYP02-ROLL
  5
115B
 10
2.853
 20
1.988
 30
2.176
 70
   192
  0
VERTEX
  8
11TYP02-ROLL
  5
115C
 10
2.751
 20
14.42
 30
2.107
 70
   192
  0
VERTEX
  8
11TYP02-ROLL
  5
115D
 10
2.638
 20
14.42
 30
2.057
 70
   192
  0
VERTEX
  8
11TYP02-ROLL
  5
115E
 10
2.638
 20
1.988
 30
2.057
 70
   192
  0
VERTEX
  8
11TYP02-ROLL
  5
115F
 10
2.518
 20
14.42
 30
2.027
 70
   192
  0
VERTEX
  8
11TYP02-ROLL
  5
1160
 10
2.396
 20
14.42
 30
2.018
 70
   192
  0
VERTEX
  8
11TYP02-ROLL
  5
1161
 10
2.518
 20
1.988
 30
2.027
 70
   192
  0
VERTEX
  8
11TYP02-ROLL
  5
1162
 10
0.0
 20
0.0
 30
0.0
 70
   128
 71
     2
 72
     3
 73
    -1
  0
VERTEX
  8
11TYP02-ROLL
  5
1163
 10
0.0
 20
0.0
 30
0.0
 70
   128
 71
     1
 72
    71
 73
    -2
  0
VERTEX
  8
11TYP02-ROLL
  5
1164
 10
0.0
 20
0.0
 30
0.0
 70
   128
 71
     3
 72
     5
 73
    -4
  0
VERTEX
  8
11TYP02-ROLL
  5
1165
 10
0.0
 20
0.0
 30
0.0
 70
   128
 71
     4
 72
     1
 73
    -3
  0
VERTEX
  8
11TYP02-ROLL
  5
1166
 10
0.0
 20
0.0
 30
0.0
 70
   128
 71
     5
 72
     7
 73
    -8
  0
VERTEX
  8
11TYP02-ROLL
  5
1167
 10
0.0
 20
0.0
 30
0.0
 70
   128
 71
     8
 72
     4
 73
    -5
  0
VERTEX
  8
11TYP02-ROLL
  5
1168
 10
0.0
 20
0.0
 30
0.0
 70
   128
 71
     7
 72
     9
 73
    -6
  0
VERTEX
  8
11TYP02-ROLL
  5
1169
 10
0.0
 20
0.0
 30
0.0
 70
   128
 71
     6
 72
     8
 73
    -7
  0
VERTEX
  8
11TYP02-ROLL
  5
116A
 10
0.0
 20
0.0
 30
0.0
 70
   128
 71
     9
 72
    11
 73
   -10
  0
VERTEX
  8
11TYP02-ROLL
  5
116B
 10
0.0
 20
0.0
 30
0.0
 70
   128
 71
    10
 72
     6
 73
    -9
  0
VERTEX
  8
11TYP02-ROLL
  5
116C
 10
0.0
 20
0.0
 30
0.0
 70
   128
 71
    11
 72
    13
 73
   -12
  0
VERTEX
  8
11TYP02-ROLL
  5
116D
 10
0.0
 20
0.0
 30
0.0
 70
   128
 71
    12
 72
    10
 73
   -11
  0
VERTEX
  8
11TYP02-ROLL
  5
116E
 10
0.0
 20
0.0
 30
0.0
 70
   128
 71
    13
 72
    15
 73
   -16
  0
VERTEX
  8
11TYP02-ROLL
  5
116F
 10
0.0
 20
0.0
 30
0.0
 70
   128
 71
    16
 72
    12
 73
   -13
  0
VERTEX
  8
11TYP02-ROLL
  5
1170
 10
0.0
 20
0.0
 30
0.0
 70
   128
 71
    15
 72
    14
 73
   -17
  0
VERTEX
  8
11TYP02-ROLL
  5
1171
 10
0.0
 20
0.0
 30
0.0
 70
   128
 71
    17
 72
    16
 73
   -15
  0
VERTEX
  8
11TYP02-ROLL
  5
1172
 10
0.0
 20
0.0
 30
0.0
 70
   128
 71
    14
 72
    18
 73
   -19
  0
VERTEX
  8
11TYP02-ROLL
  5
1173
 10
0.0
 20
0.0
 30
0.0
 70
   128
 71
    19
 72
    17
 73
   -14
  0
VERTEX
  8
11TYP02-ROLL
  5
1174
 10
0.0
 20
0.0
 30
0.0
 70
   128
 71
    18
 72
    23
 73
   -20
  0
VERTEX
  8
11TYP02-ROLL
  5
1175
 10
0.0
 20
0.0
 30
0.0
 70
   128
 71
    20
 72
    19
 73
   -18
  0
VERTEX
  8
11TYP02-ROLL
  5
1176
 10
0.0
 20
0.0
 30
0.0
 70
   128
 71
    23
 72
    22
 73
   -21
  0
VERTEX
  8
11TYP02-ROLL
  5
1177
 10
0.0
 20
0.0
 30
0.0
 70
   128
 71
    21
 72
    20
 73
   -23
  0
VERTEX
  8
11TYP02-ROLL
  5
1178
 10
0.0
 20
0.0
 30
0.0
 70
   128
 71
    22
 72
    24
 73
   -25
  0
VERTEX
  8
11TYP02-ROLL
  5
1179
 10
0.0
 20
0.0
 30
0.0
 70
   128
 71
    25
 72
    21
 73
   -22
  0
VERTEX
  8
11TYP02-ROLL
  5
117A
 10
0.0
 20
0.0
 30
0.0
 70
   128
 71
    24
 72
    28
 73
   -26
  0
VERTEX
  8
11TYP02-ROLL
  5
117B
 10
0.0
 20
0.0
 30
0.0
 70
   128
 71
    26
 72
    25
 73
   -24
  0
VERTEX
  8
11TYP02-ROLL
  5
117C
 10
0.0
 20
0.0
 30
0.0
 70
   128
 71
    28
 72
    27
 73
   -29
  0
VERTEX
  8
11TYP02-ROLL
  5
117D
 10
0.0
 20
0.0
 30
0.0
 70
   128
 71
    29
 72
    26
 73
   -28
  0
VERTEX
  8
11TYP02-ROLL
  5
117E
 10
0.0
 20
0.0
 30
0.0
 70
   128
 71
    27
 72
    30
 73
   -31
  0
VERTEX
  8
11TYP02-ROLL
  5
117F
 10
0.0
 20
0.0
 30
0.0
 70
   128
 71
    31
 72
    29
 73
   -27
  0
VERTEX
  8
11TYP02-ROLL
  5
1180
 10
0.0
 20
0.0
 30
0.0
 70
   128
 71
    30
 72
    33
 73
   -32
  0
VERTEX
  8
11TYP02-ROLL
  5
1181
 10
0.0
 20
0.0
 30
0.0
 70
   128
 71
    32
 72
    31
 73
   -30
  0
VERTEX
  8
11TYP02-ROLL
  5
1182
 10
0.0
 20
0.0
 30
0.0
 70
   128
 71
    33
 72
    34
 73
   -36
  0
VERTEX
  8
11TYP02-ROLL
  5
1183
 10
0.0
 20
0.0
 30
0.0
 70
   128
 71
    36
 72
    32
 73
   -33
  0
VERTEX
  8
11TYP02-ROLL
  5
1184
 10
0.0
 20
0.0
 30
0.0
 70
   128
 71
    34
 72
    35
 73
   -37
  0
VERTEX
  8
11TYP02-ROLL
  5
1185
 10
0.0
 20
0.0
 30
0.0
 70
   128
 71
    37
 72
    36
 73
   -34
  0
VERTEX
  8
11TYP02-ROLL
  5
1186
 10
0.0
 20
0.0
 30
0.0
 70
   128
 71
    35
 72
    39
 73
   -38
  0
VERTEX
  8
11TYP02-ROLL
  5
1187
 10
0.0
 20
0.0
 30
0.0
 70
   128
 71
    38
 72
    37
 73
   -35
  0
VERTEX
  8
11TYP02-ROLL
  5
1188
 10
0.0
 20
0.0
 30
0.0
 70
   128
 71
    39
 72
    42
 73
   -40
  0
VERTEX
  8
11TYP02-ROLL
  5
1189
 10
0.0
 20
0.0
 30
0.0
 70
   128
 71
    40
 72
    38
 73
   -39
  0
VERTEX
  8
11TYP02-ROLL
  5
118A
 10
0.0
 20
0.0
 30
0.0
 70
   128
 71
    42
 72
    41
 73
   -45
  0
VERTEX
  8
11TYP02-ROLL
  5
118B
 10
0.0
 20
0.0
 30
0.0
 70
   128
 71
    45
 72
    40
 73
   -42
  0
VERTEX
  8
11TYP02-ROLL
  5
118C
 10
0.0
 20
0.0
 30
0.0
 70
   128
 71
    41
 72
    44
 73
   -43
  0
VERTEX
  8
11TYP02-ROLL
  5
118D
 10
0.0
 20
0.0
 30
0.0
 70
   128
 71
    43
 72
    45
 73
   -41
  0
VERTEX
  8
11TYP02-ROLL
  5
118E
 10
0.0
 20
0.0
 30
0.0
 70
   128
 71
    44
 72
    47
 73
   -46
  0
VERTEX
  8
11TYP02-ROLL
  5
118F
 10
0.0
 20
0.0
 30
0.0
 70
   128
 71
    46
 72
    43
 73
   -44
  0
VERTEX
  8
11TYP02-ROLL
  5
1190
 10
0.0
 20
0.0
 30
0.0
 70
   128
 71
    47
 72
    49
 73
   -48
  0
VERTEX
  8
11TYP02-ROLL
  5
1191
 10
0.0
 20
0.0
 30
0.0
 70
   128
 71
    48
 72
    46
 73
   -47
  0
VERTEX
  8
11TYP02-ROLL
  5
1192
 10
0.0
 20
0.0
 30
0.0
 70
   128
 71
    49
 72
    50
 73
   -51
  0
VERTEX
  8
11TYP02-ROLL
  5
1193
 10
0.0
 20
0.0
 30
0.0
 70
   128
 71
    51
 72
    48
 73
   -49
  0
VERTEX
  8
11TYP02-ROLL
  5
1194
 10
0.0
 20
0.0
 30
0.0
 70
   128
 71
    50
 72
    52
 73
   -53
  0
VERTEX
  8
11TYP02-ROLL
  5
1195
 10
0.0
 20
0.0
 30
0.0
 70
   128
 71
    53
 72
    51
 73
   -50
  0
VERTEX
  8
11TYP02-ROLL
  5
1196
 10
0.0
 20
0.0
 30
0.0
 70
   128
 71
    52
 72
    56
 73
   -57
  0
VERTEX
  8
11TYP02-ROLL
  5
1197
 10
0.0
 20
0.0
 30
0.0
 70
   128
 71
    57
 72
    53
 73
   -52
  0
VERTEX
  8
11TYP02-ROLL
  5
1198
 10
0.0
 20
0.0
 30
0.0
 70
   128
 71
    56
 72
    55
 73
   -54
  0
VERTEX
  8
11TYP02-ROLL
  5
1199
 10
0.0
 20
0.0
 30
0.0
 70
   128
 71
    54
 72
    57
 73
   -56
  0
VERTEX
  8
11TYP02-ROLL
  5
119A
 10
0.0
 20
0.0
 30
0.0
 70
   128
 71
    55
 72
    60
 73
   -61
  0
VERTEX
  8
11TYP02-ROLL
  5
119B
 10
0.0
 20
0.0
 30
0.0
 70
   128
 71
    61
 72
    54
 73
   -55
  0
VERTEX
  8
11TYP02-ROLL
  5
119C
 10
0.0
 20
0.0
 30
0.0
 70
   128
 71
    60
 72
    59
 73
   -58
  0
VERTEX
  8
11TYP02-ROLL
  5
119D
 10
0.0
 20
0.0
 30
0.0
 70
   128
 71
    58
 72
    61
 73
   -60
  0
VERTEX
  8
11TYP02-ROLL
  5
119E
 10
0.0
 20
0.0
 30
0.0
 70
   128
 71
    59
 72
    62
 73
   -63
  0
VERTEX
  8
11TYP02-ROLL
  5
119F
 10
0.0
 20
0.0
 30
0.0
 70
   128
 71
    63
 72
    58
 73
   -59
  0
VERTEX
  8
11TYP02-ROLL
  5
11A0
 10
0.0
 20
0.0
 30
0.0
 70
   128
 71
    62
 72
    66
 73
   -64
  0
VERTEX
  8
11TYP02-ROLL
  5
11A1
 10
0.0
 20
0.0
 30
0.0
 70
   128
 71
    64
 72
    63
 73
   -62
  0
VERTEX
  8
11TYP02-ROLL
  5
11A2
 10
0.0
 20
0.0
 30
0.0
 70
   128
 71
    66
 72
    65
 73
   -67
  0
VERTEX
  8
11TYP02-ROLL
  5
11A3
 10
0.0
 20
0.0
 30
0.0
 70
   128
 71
    67
 72
    64
 73
   -66
  0
VERTEX
  8
11TYP02-ROLL
  5
11A4
 10
0.0
 20
0.0
 30
0.0
 70
   128
 71
    65
 72
    69
 73
   -68
  0
VERTEX
  8
11TYP02-ROLL
  5
11A5
 10
0.0
 20
0.0
 30
0.0
 70
   128
 71
    68
 72
    67
 73
   -65
  0
VERTEX
  8
11TYP02-ROLL
  5
11A6
 10
0.0
 20
0.0
 30
0.0
 70
   128
 71
    69
 72
    72
 73
   -70
  0
VERTEX
  8
11TYP02-ROLL
  5
11A7
 10
0.0
 20
0.0
 30
0.0
 70
   128
 71
    70
 72
    68
 73
   -69
  0
VERTEX
  8
11TYP02-ROLL
  5
11A8
 10
0.0
 20
0.0
 30
0.0
 70
   128
 71
    72
 72
     2
 73
   -71
  0
VERTEX
  8
11TYP02-ROLL
  5
11A9
 10
0.0
 20
0.0
 30
0.0
 70
   128
 71
    71
 72
    70
 73
   -72
  0
SEQEND
  8
11TYP02-ROLL
  5
11AA
  0
POLYLINE
  8
11TYP02-STAND
  5
11C4
 66
     1
 10
0.0
 20
0.0
 30
0.0
 70
    64
 71
     9
 72
    16
1001
AVE_ENTITY_MATERIAL
1002
{
1000

1002
{
1071
        0
1070
     0
1070
     0
1002
{
1070
     0
1070
     0
1070
     0
1040
0.0
1002
}
1070
     0
1070
     0
1002
{
1002
}
1002
}
1002
{
1002
}
1002
{
1002
}
1011
0.0
1021
0.0
1031
0.0
1011
1.0
1021
0.0
1031
0.0
1011
0.0
1021
1.0
1031
0.0
1011
0.0
1021
0.0
1031
1.0
1002
}
1001
AVE_FINISH
1002
{
1070
     0
1005
11DF
1002
}
  0
VERTEX
  8
11TYP02-STAND
  5
11C5
 10
0.806
 20
11.691
 30
3.656
 70
   192
  0
VERTEX
  8
11TYP02-STAND
  5
11C6
 10
-0.597
 20
8.204
 30
6.085
 70
   192
  0
VERTEX
  8
11TYP02-STAND
  5
11C7
 10
-0.597
 20
5.204
 30
6.085
 70
   192
  0
VERTEX
  8
11TYP02-STAND
  5
11C8
 10
-0.841
 20
11.204
 30
6.085
 70
   192
  0
VERTEX
  8
11TYP02-STAND
  5
11C9
 10
-0.597
 20
11.204
 30
6.085
 70
   192
  0
VERTEX
  8
11TYP02-STAND
  5
11CA
 10
0.806
 20
4.717
 30
3.656
 70
   192
  0
VERTEX
  8
11TYP02-STAND
  5
11CB
 10
0.562
 20
4.717
 30
3.656
 70
   192
  0
VERTEX
  8
11TYP02-STAND
  5
11CC
 10
-0.841
 20
5.204
 30
6.085
 70
   192
  0
VERTEX
  8
11TYP02-STAND
  5
11CD
 10
0.562
 20
11.691
 30
3.656
 70
   192
  0
VERTEX
  8
11TYP02-STAND
  5
11CE
 10
0.0
 20
0.0
 30
0.0
 70
   128
 71
     5
 72
     3
 73
     2
  0
VERTEX
  8
11TYP02-STAND
  5
11CF
 10
0.0
 20
0.0
 30
0.0
 70
   128
 71
     1
 72
     5
 73
    -2
  0
VERTEX
  8
11TYP02-STAND
  5
11D0
 10
0.0
 20
0.0
 30
0.0
 70
   128
 71
     6
 72
    -1
 73
    -2
  0
VERTEX
  8
11TYP02-STAND
  5
11D1
 10
0.0
 20
0.0
 30
0.0
 70
   128
 71
     3
 72
    -6
 73
     2
  0
VERTEX
  8
11TYP02-STAND
  5
11D2
 10
0.0
 20
0.0
 30
0.0
 70
   128
 71
     4
 72
    -8
 73
     5
  0
VERTEX
  8
11TYP02-STAND
  5
11D3
 10
0.0
 20
0.0
 30
0.0
 70
   128
 71
     3
 72
    -5
 73
     8
  0
VERTEX
  8
11TYP02-STAND
  5
11D4
 10
0.0
 20
0.0
 30
0.0
 70
   128
 71
     9
 72
    -4
 73
     1
  0
VERTEX
  8
11TYP02-STAND
  5
11D5
 10
0.0
 20
0.0
 30
0.0
 70
   128
 71
     5
 72
    -1
 73
     4
  0
VERTEX
  8
11TYP02-STAND
  5
11D6
 10
0.0
 20
0.0
 30
0.0
 70
   128
 71
     7
 72
    -9
 73
     6
  0
VERTEX
  8
11TYP02-STAND
  5
11D7
 10
0.0
 20
0.0
 30
0.0
 70
   128
 71
     1
 72
    -6
 73
     9
  0
VERTEX
  8
11TYP02-STAND
  5
11D8
 10
0.0
 20
0.0
 30
0.0
 70
   128
 71
    -8
 72
     6
 73
     3
  0
VERTEX
  8
11TYP02-STAND
  5
11D9
 10
0.0
 20
0.0
 30
0.0
 70
   128
 71
     7
 72
    -6
 73
     8
  0
VERTEX
  8
11TYP02-STAND
  5
11DA
 10
0.0
 20
0.0
 30
0.0
 70
   128
 71
    -4
 72
     7
 73
     8
  0
VERTEX
  8
11TYP02-STAND
  5
11DB
 10
0.0
 20
0.0
 30
0.0
 70
   128
 71
     9
 72
    -7
 73
     4
  0
VERTEX
  8
11TYP02-STAND
  5
11DC
 10
0.0
 20
0.0
 30
0.0
 70
   128
 71
    -6
 72
     5
 73
     3
  0
VERTEX
  8
11TYP02-STAND
  5
11DD
 10
0.0
 20
0.0
 30
0.0
 70
   128
 71
     6
 72
     1
 73
    -5
  0
SEQEND
  8
11TYP02-STAND
  5
11DE
  0
POLYLINE
  8
11TYP02-STRUCT
  5
11F8
 66
     1
 10
0.0
 20
0.0
 30
0.0
 70
    64
 71
    16
 72
    24
1001
AVE_ENTITY_MATERIAL
1002
{
1000

1002
{
1071
        0
1070
     0
1070
     0
1002
{
1070
     0
1070
     0
1070
     0
1040
0.0
1002
}
1070
     0
1070
     0
1002
{
1002
}
1002
}
1002
{
1002
}
1002
{
1002
}
1011
0.0
1021
0.0
1031
0.0
1011
1.0
1021
0.0
1031
0.0
1011
0.0
1021
1.0
1031
0.0
1011
0.0
1021
0.0
1031
1.0
1002
}
1001
AVE_FINISH
1002
{
1070
     0
1005
1222
1002
}
  0
VERTEX
  8
11TYP02-STRUCT
  5
11F9
 10
2.541
 20
1.886
 30
3.695
 70
   192
  0
VERTEX
  8
11TYP02-STRUCT
  5
11FA
 10
2.541
 20
1.803
 30
3.695
 70
   192
  0
VERTEX
  8
11TYP02-STRUCT
  5
11FB
 10
2.265
 20
1.803
 30
3.7
 70
   192
  0
VERTEX
  8
11TYP02-STRUCT
  5
11FC
 10
2.528
 20
1.886
 30
2.95
 70
   192
  0
VERTEX
  8
11TYP02-STRUCT
  5
11FD
 10
2.252
 20
1.803
 30
2.954
 70
   192
  0
VERTEX
  8
11TYP02-STRUCT
  5
11FE
 10
2.252
 20
1.886
 30
2.954
 70
   192
  0
VERTEX
  8
11TYP02-STRUCT
  5
11FF
 10
2.265
 20
1.886
 30
3.7
 70
   192
  0
VERTEX
  8
11TYP02-STRUCT
  5
1200
 10
2.528
 20
1.803
 30
2.95
 70
   192
  0
VERTEX
  8
11TYP02-STRUCT
  5
1201
 10
2.265
 20
14.522
 30
3.7
 70
   192
  0
VERTEX
  8
11TYP02-STRUCT
  5
1202
 10
2.541
 20
14.605
 30
3.695
 70
   192
  0
VERTEX
  8
11TYP02-STRUCT
  5
1203
 10
2.252
 20
14.522
 30
2.954
 70
   192
  0
VERTEX
  8
11TYP02-STRUCT
  5
1204
 10
2.265
 20
14.605
 30
3.7
 70
   192
  0
VERTEX
  8
11TYP02-STRUCT
  5
1205
 10
2.528
 20
14.605
 30
2.95
 70
   192
  0
VERTEX
  8
11TYP02-STRUCT
  5
1206
 10
2.541
 20
14.522
 30
3.695
 70
   192
  0
VERTEX
  8
11TYP02-STRUCT
  5
1207
 10
2.528
 20
14.522
 30
2.95
 70
   192
  0
VERTEX
  8
11TYP02-STRUCT
  5
1208
 10
2.252
 20
14.605
 30
2.954
 70
   192
  0
VERTEX
  8
11TYP02-STRUCT
  5
1209
 10
0.0
 20
0.0
 30
0.0
 70
   128
 71
     2
 72
     1
 73
    -7
  0
VERTEX
  8
11TYP02-STRUCT
  5
120A
 10
0.0
 20
0.0
 30
0.0
 70
   128
 71
     7
 72
     3
 73
    -2
  0
VERTEX
  8
11TYP02-STRUCT
  5
120B
 10
0.0
 20
0.0
 30
0.0
 70
   128
 71
     4
 72
     6
 73
    -7
  0
VERTEX
  8
11TYP02-STRUCT
  5
120C
 10
0.0
 20
0.0
 30
0.0
 70
   128
 71
     7
 72
     1
 73
    -4
  0
VERTEX
  8
11TYP02-STRUCT
  5
120D
 10
0.0
 20
0.0
 30
0.0
 70
   128
 71
     6
 72
     5
 73
    -3
  0
VERTEX
  8
11TYP02-STRUCT
  5
120E
 10
0.0
 20
0.0
 30
0.0
 70
   128
 71
     3
 72
     7
 73
    -6
  0
VERTEX
  8
11TYP02-STRUCT
  5
120F
 10
0.0
 20
0.0
 30
0.0
 70
   128
 71
     5
 72
     8
 73
    -2
  0
VERTEX
  8
11TYP02-STRUCT
  5
1210
 10
0.0
 20
0.0
 30
0.0
 70
   128
 71
     2
 72
     3
 73
    -5
  0
VERTEX
  8
11TYP02-STRUCT
  5
1211
 10
0.0
 20
0.0
 30
0.0
 70
   128
 71
     8
 72
     4
 73
    -1
  0
VERTEX
  8
11TYP02-STRUCT
  5
1212
 10
0.0
 20
0.0
 30
0.0
 70
   128
 71
     1
 72
     2
 73
    -8
  0
VERTEX
  8
11TYP02-STRUCT
  5
1213
 10
0.0
 20
0.0
 30
0.0
 70
   128
 71
     5
 72
     6
 73
    -4
  0
VERTEX
  8
11TYP02-STRUCT
  5
1214
 10
0.0
 20
0.0
 30
0.0
 70
   128
 71
     4
 72
     8
 73
    -5
  0
VERTEX
  8
11TYP02-STRUCT
  5
1215
 10
0.0
 20
0.0
 30
0.0
 70
   128
 71
    14
 72
   -10
 73
     9
  0
VERTEX
  8
11TYP02-STRUCT
  5
1216
 10
0.0
 20
0.0
 30
0.0
 70
   128
 71
    12
 72
    -9
 73
    10
  0
VERTEX
  8
11TYP02-STRUCT
  5
1217
 10
0.0
 20
0.0
 30
0.0
 70
   128
 71
    11
 72
   -15
 73
     9
  0
VERTEX
  8
11TYP02-STRUCT
  5
1218
 10
0.0
 20
0.0
 30
0.0
 70
   128
 71
    14
 72
    -9
 73
    15
  0
VERTEX
  8
11TYP02-STRUCT
  5
1219
 10
0.0
 20
0.0
 30
0.0
 70
   128
 71
    16
 72
   -11
 73
    12
  0
VERTEX
  8
11TYP02-STRUCT
  5
121A
 10
0.0
 20
0.0
 30
0.0
 70
   128
 71
     9
 72
   -12
 73
    11
  0
VERTEX
  8
11TYP02-STRUCT
  5
121B
 10
0.0
 20
0.0
 30
0.0
 70
   128
 71
    13
 72
   -16
 73
    10
  0
VERTEX
  8
11TYP02-STRUCT
  5
121C
 10
0.0
 20
0.0
 30
0.0
 70
   128
 71
    12
 72
   -10
 73
    16
  0
VERTEX
  8
11TYP02-STRUCT
  5
121D
 10
0.0
 20
0.0
 30
0.0
 70
   128
 71
    15
 72
   -13
 73
    14
  0
VERTEX
  8
11TYP02-STRUCT
  5
121E
 10
0.0
 20
0.0
 30
0.0
 70
   128
 71
    10
 72
   -14
 73
    13
  0
VERTEX
  8
11TYP02-STRUCT
  5
121F
 10
0.0
 20
0.0
 30
0.0
 70
   128
 71
    11
 72
   -16
 73
    15
  0
VERTEX
  8
11TYP02-STRUCT
  5
1220
 10
0.0
 20
0.0
 30
0.0
 70
   128
 71
    13
 72
   -15
 73
    16
  0
SEQEND
  8
11TYP02-STRUCT
  5
1221
  0
POLYLINE
  8
11TYP02-TOP
  5
123B
 66
     1
 10
0.0
 20
0.0
 30
0.0
 70
    64
 71
     4
 72
     4
1001
AVE_ENTITY_MATERIAL
1002
{
1000

1002
{
1071
        0
1070
     0
1070
     0
1002
{
1070
     0
1070
     0
1070
     0
1040
0.0
1002
}
1070
     0
1070
     0
1002
{
1002
}
1002
}
1002
{
1002
}
1002
{
1002
}
1011
0.0
1021
0.0
1031
0.0
1011
1.0
1021
0.0
1031
0.0
1011
0.0
1021
1.0
1031
0.0
1011
0.0
1021
0.0
1031
1.0
1002
}
1001
AVE_FINISH
1002
{
1070
     0
1005
65B
1002
}
  0
VERTEX
  8
11TYP02-TOP
  5
123C
 10
6.454
 20
1.677
 30
3.443
 70
   192
  0
VERTEX
  8
11TYP02-TOP
  5
123D
 10
3.718
 20
1.677
 30
3.491
 70
   192
  0
VERTEX
  8
11TYP02-TOP
  5
123E
 10
3.718
 20
14.731
 30
3.491
 70
   192
  0
VERTEX
  8
11TYP02-TOP
  5
123F
 10
6.454
 20
14.731
 30
3.443
 70
   192
  0
VERTEX
  8
11TYP02-TOP
  5
1240
 10
0.0
 20
0.0
 30
0.0
 70
   128
 71
     3
 72
     2
 73
    -1
  0
VERTEX
  8
11TYP02-TOP
  5
1241
 10
0.0
 20
0.0
 30
0.0
 70
   128
 71
     1
 72
     4
 73
    -3
  0
VERTEX
  8
11TYP02-TOP
  5
1242
 10
0.0
 20
0.0
 30
0.0
 70
   128
 71
     4
 72
     1
 73
    -2
  0
VERTEX
  8
11TYP02-TOP
  5
1243
 10
0.0
 20
0.0
 30
0.0
 70
   128
 71
     2
 72
     3
 73
    -4
  0
SEQEND
  8
11TYP02-TOP
  5
1244
  0
POLYLINE
  8
11TYP02-UNDERKE
  5
1245
 66
     1
 10
0.0
 20
0.0
 30
0.0
 70
    64
 71
     5
 72
     6
1001
AVE_ENTITY_MATERIAL
1002
{
1000

1002
{
1071
        0
1070
     0
1070
     0
1002
{
1070
     0
1070
     0
1070
     0
1040
0.0
1002
}
1070
     0
1070
     0
1002
{
1002
}
1002
}
1002
{
1002
}
1002
{
1002
}
1011
0.0
1021
0.0
1031
0.0
1011
1.0
1021
0.0
1031
0.0
1011
0.0
1021
1.0
1031
0.0
1011
0.0
1021
0.0
1031
1.0
1002
}
1001
AVE_FINISH
1002
{
1070
     0
1005
1252
1002
}
  0
VERTEX
  8
11TYP02-UNDERKE
  5
1246
 10
13.21
 20
8.204
 30
1.72
 70
   192
  0
VERTEX
  8
11TYP02-UNDERKE
  5
1247
 10
13.21
 20
2.849
 30
1.72
 70
   192
  0
VERTEX
  8
11TYP02-UNDERKE
  5
1248
 10
13.21
 20
13.558
 30
1.72
 70
   192
  0
VERTEX
  8
11TYP02-UNDERKE
  5
1249
 10
9.361
 20
2.849
 30
2.206
 70
   192
  0
VERTEX
  8
11TYP02-UNDERKE
  5
124A
 10
9.349
 20
13.558
 30
2.207
 70
   192
  0
VERTEX
  8
11TYP02-UNDERKE
  5
124B
 10
0.0
 20
0.0
 30
0.0
 70
   128
 71
    -4
 72
     3
 73
     5
  0
VERTEX
  8
11TYP02-UNDERKE
  5
124C
 10
0.0
 20
0.0
 30
0.0
 70
   128
 71
     4
 72
     2
 73
    -3
  0
VERTEX
  8
11TYP02-UNDERKE
  5
124D
 10
0.0
 20
0.0
 30
0.0
 70
   128
 71
     3
 72
     2
 73
     1
  0
VERTEX
  8
11TYP02-UNDERKE
  5
124E
 10
0.0
 20
0.0
 30
0.0
 70
   128
 71
     2
 72
    -4
 73
     1
  0
VERTEX
  8
11TYP02-UNDERKE
  5
124F
 10
0.0
 20
0.0
 30
0.0
 70
   128
 71
     4
 72
    -5
 73
    -1
  0
VERTEX
  8
11TYP02-UNDERKE
  5
1250
 10
0.0
 20
0.0
 30
0.0
 70
   128
 71
     5
 72
     3
 73
    -1
  0
SEQEND
  8
11TYP02-UNDERKE
  5
1251
  0
ENDSEC
  0
EOF
